  0
SECTION
  2
HEADER
  9
$ACADVER
  1
AC1015
  9
$ACADMAINTVER
 70
    20
  9
$DWGCODEPAGE
  3
ANSI_1254
  9
$INSBASE
 10
0.0
 20
0.0
 30
0.0
  9
$EXTMIN
 10
62.32982205422558
 20
62.73330572092246
 30
0.0
  9
$EXTMAX
 10
368.9885341499324
 20
590.1992697674
 30
0.0
  9
$LIMMIN
 10
0.0
 20
0.0
  9
$LIMMAX
 10
420.0
 20
297.0
  9
$ORTHOMODE
 70
     0
  9
$REGENMODE
 70
     1
  9
$FILLMODE
 70
     1
  9
$QTEXTMODE
 70
     0
  9
$MIRRTEXT
 70
     0
  9
$LTSCALE
 40
1.0
  9
$ATTMODE
 70
     1
  9
$TEXTSIZE
 40
2.5
  9
$TRACEWID
 40
1.0
  9
$TEXTSTYLE
  7
Standard
  9
$CLAYER
  8
0
  9
$CELTYPE
  6
ByLayer
  9
$CECOLOR
 62
   256
  9
$CELTSCALE
 40
1.0
  9
$DISPSILH
 70
     0
  9
$DIMSCALE
 40
1.0
  9
$DIMASZ
 40
2.5
  9
$DIMEXO
 40
0.625
  9
$DIMDLI
 40
3.75
  9
$DIMRND
 40
0.0
  9
$DIMDLE
 40
0.0
  9
$DIMEXE
 40
1.25
  9
$DIMTP
 40
0.0
  9
$DIMTM
 40
0.0
  9
$DIMTXT
 40
2.5
  9
$DIMCEN
 40
2.5
  9
$DIMTSZ
 40
0.0
  9
$DIMTOL
 70
     0
  9
$DIMLIM
 70
     0
  9
$DIMTIH
 70
     0
  9
$DIMTOH
 70
     0
  9
$DIMSE1
 70
     0
  9
$DIMSE2
 70
     0
  9
$DIMTAD
 70
     1
  9
$DIMZIN
 70
     8
  9
$DIMBLK
  1

  9
$DIMASO
 70
     1
  9
$DIMSHO
 70
     1
  9
$DIMPOST
  1

  9
$DIMAPOST
  1

  9
$DIMALT
 70
     0
  9
$DIMALTD
 70
     3
  9
$DIMALTF
 40
0.03937007874016
  9
$DIMLFAC
 40
1.0
  9
$DIMTOFL
 70
     1
  9
$DIMTVP
 40
0.0
  9
$DIMTIX
 70
     0
  9
$DIMSOXD
 70
     0
  9
$DIMSAH
 70
     0
  9
$DIMBLK1
  1

  9
$DIMBLK2
  1

  9
$DIMSTYLE
  2
ISO-25
  9
$DIMCLRD
 70
     0
  9
$DIMCLRE
 70
     0
  9
$DIMCLRT
 70
     0
  9
$DIMTFAC
 40
1.0
  9
$DIMGAP
 40
0.625
  9
$DIMJUST
 70
     0
  9
$DIMSD1
 70
     0
  9
$DIMSD2
 70
     0
  9
$DIMTOLJ
 70
     0
  9
$DIMTZIN
 70
     8
  9
$DIMALTZ
 70
     0
  9
$DIMALTTZ
 70
     0
  9
$DIMUPT
 70
     0
  9
$DIMDEC
 70
     2
  9
$DIMTDEC
 70
     2
  9
$DIMALTU
 70
     2
  9
$DIMALTTD
 70
     3
  9
$DIMTXSTY
  7
Standard
  9
$DIMAUNIT
 70
     0
  9
$DIMADEC
 70
     0
  9
$DIMALTRND
 40
0.0
  9
$DIMAZIN
 70
     0
  9
$DIMDSEP
 70
    44
  9
$DIMATFIT
 70
     3
  9
$DIMFRAC
 70
     0
  9
$DIMLDRBLK
  1

  9
$DIMLUNIT
 70
     2
  9
$DIMLWD
 70
    -2
  9
$DIMLWE
 70
    -2
  9
$DIMTMOVE
 70
     0
  9
$LUNITS
 70
     2
  9
$LUPREC
 70
     4
  9
$SKETCHINC
 40
1.0
  9
$FILLETRAD
 40
0.0
  9
$AUNITS
 70
     0
  9
$AUPREC
 70
     0
  9
$MENU
  1
.
  9
$ELEVATION
 40
0.0
  9
$PELEVATION
 40
0.0
  9
$THICKNESS
 40
0.0
  9
$LIMCHECK
 70
     0
  9
$CHAMFERA
 40
0.0
  9
$CHAMFERB
 40
0.0
  9
$CHAMFERC
 40
0.0
  9
$CHAMFERD
 40
0.0
  9
$SKPOLY
 70
     0
  9
$TDCREATE
 40
2460089.526377315
  9
$TDUCREATE
 40
2460089.401377315
  9
$TDUPDATE
 40
2460089.530520834
  9
$TDUUPDATE
 40
2460089.405520834
  9
$TDINDWG
 40
0.0041550926
  9
$TDUSRTIMER
 40
0.0041550926
  9
$USRTIMER
 70
     1
  9
$ANGBASE
 50
0.0
  9
$ANGDIR
 70
     0
  9
$PDMODE
 70
     0
  9
$PDSIZE
 40
0.0
  9
$PLINEWID
 40
0.0
  9
$SPLFRAME
 70
     0
  9
$SPLINETYPE
 70
     6
  9
$SPLINESEGS
 70
     8
  9
$HANDSEED
  5
35D
  9
$SURFTAB1
 70
     6
  9
$SURFTAB2
 70
     6
  9
$SURFTYPE
 70
     6
  9
$SURFU
 70
     6
  9
$SURFV
 70
     6
  9
$UCSBASE
  2

  9
$UCSNAME
  2

  9
$UCSORG
 10
0.0
 20
0.0
 30
0.0
  9
$UCSXDIR
 10
1.0
 20
0.0
 30
0.0
  9
$UCSYDIR
 10
0.0
 20
1.0
 30
0.0
  9
$UCSORTHOREF
  2

  9
$UCSORTHOVIEW
 70
     0
  9
$UCSORGTOP
 10
0.0
 20
0.0
 30
0.0
  9
$UCSORGBOTTOM
 10
0.0
 20
0.0
 30
0.0
  9
$UCSORGLEFT
 10
0.0
 20
0.0
 30
0.0
  9
$UCSORGRIGHT
 10
0.0
 20
0.0
 30
0.0
  9
$UCSORGFRONT
 10
0.0
 20
0.0
 30
0.0
  9
$UCSORGBACK
 10
0.0
 20
0.0
 30
0.0
  9
$PUCSBASE
  2

  9
$PUCSNAME
  2

  9
$PUCSORG
 10
0.0
 20
0.0
 30
0.0
  9
$PUCSXDIR
 10
1.0
 20
0.0
 30
0.0
  9
$PUCSYDIR
 10
0.0
 20
1.0
 30
0.0
  9
$PUCSORTHOREF
  2

  9
$PUCSORTHOVIEW
 70
     0
  9
$PUCSORGTOP
 10
0.0
 20
0.0
 30
0.0
  9
$PUCSORGBOTTOM
 10
0.0
 20
0.0
 30
0.0
  9
$PUCSORGLEFT
 10
0.0
 20
0.0
 30
0.0
  9
$PUCSORGRIGHT
 10
0.0
 20
0.0
 30
0.0
  9
$PUCSORGFRONT
 10
0.0
 20
0.0
 30
0.0
  9
$PUCSORGBACK
 10
0.0
 20
0.0
 30
0.0
  9
$USERI1
 70
     0
  9
$USERI2
 70
     0
  9
$USERI3
 70
     0
  9
$USERI4
 70
     0
  9
$USERI5
 70
     0
  9
$USERR1
 40
0.0
  9
$USERR2
 40
0.0
  9
$USERR3
 40
0.0
  9
$USERR4
 40
0.0
  9
$USERR5
 40
0.0
  9
$WORLDVIEW
 70
     1
  9
$SHADEDGE
 70
     3
  9
$SHADEDIF
 70
    70
  9
$TILEMODE
 70
     1
  9
$MAXACTVP
 70
    64
  9
$PINSBASE
 10
0.0
 20
0.0
 30
0.0
  9
$PLIMCHECK
 70
     0
  9
$PEXTMIN
 10
0.0
 20
0.0
 30
0.0
  9
$PEXTMAX
 10
0.0
 20
0.0
 30
0.0
  9
$PLIMMIN
 10
0.0
 20
0.0
  9
$PLIMMAX
 10
12.0
 20
9.0
  9
$UNITMODE
 70
     0
  9
$VISRETAIN
 70
     1
  9
$PLINEGEN
 70
     0
  9
$PSLTSCALE
 70
     1
  9
$TREEDEPTH
 70
  3020
  9
$CMLSTYLE
  2
Standard
  9
$CMLJUST
 70
     0
  9
$CMLSCALE
 40
20.0
  9
$PROXYGRAPHICS
 70
     1
  9
$MEASUREMENT
 70
     1
  9
$CELWEIGHT
370
    -1
  9
$ENDCAPS
280
     0
  9
$JOINSTYLE
280
     0
  9
$LWDISPLAY
290
     0
  9
$INSUNITS
 70
     4
  9
$HYPERLINKBASE
  1
https://www.templatesarea.com/license-agreement/
  9
$STYLESHEET
  1

  9
$XEDIT
290
     1
  9
$CEPSNTYPE
380
     0
  9
$PSTYLEMODE
290
     1
  9
$FINGERPRINTGUID
  2
{9D680E24-3503-5240-9AFC-EBC3EB66A8CD}
  9
$VERSIONGUID
  2
{F9C73FCA-D6A1-AA4E-BCEB-F4D3CB889A67}
  9
$EXTNAMES
290
     1
  9
$PSVPSCALE
 40
0.0
  9
$OLESTARTUP
290
     0
  0
ENDSEC
  0
SECTION
  2
CLASSES
  0
CLASS
  1
ACDBDICTIONARYWDFLT
  2
AcDbDictionaryWithDefault
  3
ObjectDBX Classes
 90
        0
280
     0
281
     0
  0
CLASS
  1
ACDBPLACEHOLDER
  2
AcDbPlaceHolder
  3
ObjectDBX Classes
 90
        0
280
     0
281
     0
  0
CLASS
  1
LAYOUT
  2
AcDbLayout
  3
ObjectDBX Classes
 90
        0
280
     0
281
     0
  0
CLASS
  1
DICTIONARYVAR
  2
AcDbDictionaryVar
  3
ObjectDBX Classes
 90
        0
280
     0
281
     0
  0
CLASS
  1
TABLESTYLE
  2
AcDbTableStyle
  3
ObjectDBX Classes
 90
     4095
280
     0
281
     0
  0
CLASS
  1
MATERIAL
  2
AcDbMaterial
  3
ObjectDBX Classes
 90
     1153
280
     0
281
     0
  0
CLASS
  1
VISUALSTYLE
  2
AcDbVisualStyle
  3
ObjectDBX Classes
 90
     4095
280
     0
281
     0
  0
CLASS
  1
SCALE
  2
AcDbScale
  3
ObjectDBX Classes
 90
     1153
280
     0
281
     0
  0
CLASS
  1
MLEADERSTYLE
  2
AcDbMLeaderStyle
  3
ACDB_MLEADERSTYLE_CLASS
 90
     4095
280
     0
281
     0
  0
CLASS
  1
CELLSTYLEMAP
  2
AcDbCellStyleMap
  3
ObjectDBX Classes
 90
     1152
280
     0
281
     0
  0
CLASS
  1
EXACXREFPANELOBJECT
  2
ExAcXREFPanelObject
  3
EXAC_ESW
 90
    33793
280
     0
281
     0
  0
CLASS
  1
NPOCOLLECTION
  2
AcDbImpNonPersistentObjectsCollection
  3
ObjectDBX Classes
 90
     1153
280
     0
281
     0
  0
CLASS
  1
LAYER_INDEX
  2
AcDbLayerIndex
  3
ObjectDBX Classes
 90
    32768
280
     0
281
     0
  0
CLASS
  1
SPATIAL_INDEX
  2
AcDbSpatialIndex
  3
ObjectDBX Classes
 90
    32768
280
     0
281
     0
  0
CLASS
  1
IDBUFFER
  2
AcDbIdBuffer
  3
ObjectDBX Classes
 90
    32768
280
     0
281
     0
  0
CLASS
  1
ACDBSECTIONVIEWSTYLE
  2
AcDbSectionViewStyle
  3
ObjectDBX Classes
 90
     1025
280
     0
281
     0
  0
CLASS
  1
ACDBDETAILVIEWSTYLE
  2
AcDbDetailViewStyle
  3
ObjectDBX Classes
 90
     1025
280
     0
281
     0
  0
CLASS
  1
SORTENTSTABLE
  2
AcDbSortentsTable
  3
ObjectDBX Classes
 90
        0
280
     0
281
     0
  0
CLASS
  1
SOLID_BACKGROUND
  2
AcDbSolidBackground
  3
SCENEOE
 90
     4095
280
     0
281
     0
  0
ENDSEC
  0
SECTION
  2
TABLES
  0
TABLE
  2
VPORT
  5
8
330
0
100
AcDbSymbolTable
 70
     1
  0
VPORT
  5
EA
330
8
100
AcDbSymbolTableRecord
100
AcDbViewportTableRecord
  2
*Active
 70
     0
 10
0.0
 20
0.0
 11
1.0
 21
1.0
 12
0.0
 22
0.0
 13
0.0
 23
0.0
 14
10.0
 24
10.0
 15
10.0
 25
10.0
 16
-0.0000000000004263
 26
0.0
 36
1911.036000961971
 17
215.6591739654541
 27
326.5496263972257
 37
0.0
 40
609.9869826153325
 41
2.397741530740276
 42
50.0
 43
0.0
 44
0.0
 50
0.0
 51
0.0
 71
     0
 72
  1000
 73
     1
 74
     3
 75
     0
 76
     1
 77
     0
 78
     0
281
     0
 65
     1
110
0.0
120
0.0
130
0.0
111
1.0
121
0.0
131
0.0
112
0.0
122
1.0
132
0.0
 79
     0
146
0.0
1001
ACAD_NAV_VCDISPLAY
1070
     3
  0
ENDTAB
  0
TABLE
  2
LTYPE
  5
5
330
0
100
AcDbSymbolTable
 70
     2
  0
LTYPE
  5
14
330
5
100
AcDbSymbolTableRecord
100
AcDbLinetypeTableRecord
  2
ByBlock
 70
     0
  3

 72
    65
 73
     0
 40
0.0
  0
LTYPE
  5
15
330
5
100
AcDbSymbolTableRecord
100
AcDbLinetypeTableRecord
  2
ByLayer
 70
     0
  3

 72
    65
 73
     0
 40
0.0
  0
LTYPE
  5
16
330
5
100
AcDbSymbolTableRecord
100
AcDbLinetypeTableRecord
  2
Continuous
 70
     0
  3
Solid line
 72
    65
 73
     0
 40
0.0
  0
ENDTAB
  0
TABLE
  2
LAYER
  5
2
102
{ACAD_XDICTIONARY
360
1FF
102
}
330
0
100
AcDbSymbolTable
 70
     2
  0
LAYER
  5
10
102
{ACAD_XDICTIONARY
360
13C
102
}
330
2
100
AcDbSymbolTableRecord
100
AcDbLayerTableRecord
  2
0
 70
     0
 62
     7
  6
Continuous
370
    -3
390
F
  0
LAYER
  5
2A1
102
{ACAD_XDICTIONARY
360
2A2
102
}
330
2
100
AcDbSymbolTableRecord
100
AcDbLayerTableRecord
  2
templatesarea.com
 70
     0
 62
     7
  6
Continuous
370
    -3
390
F
  0
ENDTAB
  0
TABLE
  2
STYLE
  5
3
330
0
100
AcDbSymbolTable
 70
     2
  0
STYLE
  5
11
330
3
100
AcDbSymbolTableRecord
100
AcDbTextStyleTableRecord
  2
Standard
 70
     0
 40
0.0
 41
1.0
 50
0.0
 71
     0
 42
2.5
  3
arial.ttf
  4

1001
ACAD
1000
Arial
1071
       34
  0
STYLE
  5
132
330
3
100
AcDbSymbolTableRecord
100
AcDbTextStyleTableRecord
  2
Annotative
 70
     0
 40
0.0
 41
1.0
 50
0.0
 71
     0
 42
2.5
  3
arial.ttf
  4

1001
AcadAnnotative
1000
AnnotativeData
1002
{
1070
     1
1070
     1
1002
}
1001
ACAD
1000
Arial
1071
       34
  0
ENDTAB
  0
TABLE
  2
VIEW
  5
6
330
0
100
AcDbSymbolTable
 70
     0
  0
ENDTAB
  0
TABLE
  2
UCS
  5
7
330
0
100
AcDbSymbolTable
 70
     0
  0
ENDTAB
  0
TABLE
  2
APPID
  5
9
330
0
100
AcDbSymbolTable
 70
     9
  0
APPID
  5
12
330
9
100
AcDbSymbolTableRecord
100
AcDbRegAppTableRecord
  2
ACAD
 70
     0
  0
APPID
  5
9E
330
9
100
AcDbSymbolTableRecord
100
AcDbRegAppTableRecord
  2
ACAD_PSEXT
 70
     0
  0
APPID
  5
133
330
9
100
AcDbSymbolTableRecord
100
AcDbRegAppTableRecord
  2
AcadAnnoPO
 70
     0
  0
APPID
  5
134
330
9
100
AcDbSymbolTableRecord
100
AcDbRegAppTableRecord
  2
AcadAnnotative
 70
     0
  0
APPID
  5
135
330
9
100
AcDbSymbolTableRecord
100
AcDbRegAppTableRecord
  2
ACAD_DSTYLE_DIMJAG
 70
     0
  0
APPID
  5
136
330
9
100
AcDbSymbolTableRecord
100
AcDbRegAppTableRecord
  2
ACAD_DSTYLE_DIMTALN
 70
     0
  0
APPID
  5
165
330
9
100
AcDbSymbolTableRecord
100
AcDbRegAppTableRecord
  2
ACAD_MLEADERVER
 70
     0
  0
APPID
  5
217
330
9
100
AcDbSymbolTableRecord
100
AcDbRegAppTableRecord
  2
ACAD_NAV_VCDISPLAY
 70
     0
  0
APPID
  5
306
330
9
100
AcDbSymbolTableRecord
100
AcDbRegAppTableRecord
  2
ACAD_EXEMPT_FROM_CAD_STANDARDS
 70
     0
  0
ENDTAB
  0
TABLE
  2
DIMSTYLE
  5
A
330
0
100
AcDbSymbolTable
 70
     3
100
AcDbDimStyleTable
 71
     2
340
27
340
137
  0
DIMSTYLE
105
1B0
330
A
100
AcDbSymbolTableRecord
100
AcDbDimStyleTableRecord
  2
Standard
 70
     0
340
11
  0
DIMSTYLE
105
137
330
A
100
AcDbSymbolTableRecord
100
AcDbDimStyleTableRecord
  2
Annotative
 70
     0
 40
0.0
 41
2.5
 42
0.625
 43
3.75
 44
1.25
 73
     0
 74
     0
 77
     1
 78
     8
140
2.5
141
2.5
143
0.03937007874016
147
0.625
171
     3
172
     1
271
     2
272
     2
274
     3
278
    44
283
     0
284
     8
340
11
1001
AcadAnnotative
1000
AnnotativeData
1002
{
1070
     1
1070
     1
1002
}
1001
ACAD_DSTYLE_DIMJAG
1070
   388
1040
1.5
1001
ACAD_DSTYLE_DIMTALN
1070
   392
1070
     0
  0
DIMSTYLE
105
27
330
A
100
AcDbSymbolTableRecord
100
AcDbDimStyleTableRecord
  2
ISO-25
 70
     0
 41
2.5
 42
0.625
 43
3.75
 44
1.25
 73
     0
 74
     0
 77
     1
 78
     8
140
2.5
141
2.5
143
0.03937007874016
147
0.625
171
     3
172
     1
271
     2
272
     2
274
     3
278
    44
283
     0
284
     8
340
11
  0
ENDTAB
  0
TABLE
  2
BLOCK_RECORD
  5
1
330
0
100
AcDbSymbolTable
 70
     2
  0
BLOCK_RECORD
  5
1F
102
{ACAD_XDICTIONARY
360
1CE
102
}
330
1
100
AcDbSymbolTableRecord
100
AcDbBlockTableRecord
  2
*Model_Space
340
22
  0
BLOCK_RECORD
  5
D2
330
1
100
AcDbSymbolTableRecord
100
AcDbBlockTableRecord
  2
*Paper_Space
340
D3
  0
BLOCK_RECORD
  5
D6
330
1
100
AcDbSymbolTableRecord
100
AcDbBlockTableRecord
  2
*Paper_Space0
340
D7
  0
ENDTAB
  0
ENDSEC
  0
SECTION
  2
BLOCKS
  0
BLOCK
  5
20
330
1F
100
AcDbEntity
  8
0
100
AcDbBlockBegin
  2
*Model_Space
 70
     0
 10
0.0
 20
0.0
 30
0.0
  3
*Model_Space
  1

  0
ENDBLK
  5
21
330
1F
100
AcDbEntity
  8
0
100
AcDbBlockEnd
  0
BLOCK
  5
D4
330
D2
100
AcDbEntity
 67
     1
  8
0
100
AcDbBlockBegin
  2
*Paper_Space
 70
     0
 10
0.0
 20
0.0
 30
0.0
  3
*Paper_Space
  1

  0
ENDBLK
  5
D5
330
D2
100
AcDbEntity
 67
     1
  8
0
100
AcDbBlockEnd
  0
BLOCK
  5
D8
330
D6
100
AcDbEntity
 67
     1
  8
0
100
AcDbBlockBegin
  2
*Paper_Space0
 70
     0
 10
0.0
 20
0.0
 30
0.0
  3
*Paper_Space0
  1

  0
ENDBLK
  5
D9
330
D6
100
AcDbEntity
 67
     1
  8
0
100
AcDbBlockEnd
  0
ENDSEC
  0
SECTION
  2
ENTITIES
  0
SPLINE
  5
2D7
330
1F
100
AcDbEntity
  8
templatesarea.com
100
AcDbSpline
210
0.0
220
0.0
230
1.0
 70
    12
 71
     3
 72
   827
 73
   823
 74
     0
 42
0.000000001
 43
0.0000000001
 40
0.0
 40
0.0
 40
0.0
 40
0.0
 40
1.0
 40
1.0
 40
1.0
 40
2.0
 40
2.0
 40
2.0
 40
3.0
 40
3.0
 40
3.0
 40
4.0
 40
4.0
 40
4.0
 40
5.0
 40
5.0
 40
5.0
 40
6.0
 40
6.0
 40
6.0
 40
7.0
 40
7.0
 40
7.0
 40
7.999999999999999
 40
7.999999999999999
 40
7.999999999999999
 40
8.981061841353117
 40
8.981061841353117
 40
8.981061841353117
 40
9.981061841353117
 40
9.981061841353117
 40
9.981061841353117
 40
10.98106184135311
 40
10.98106184135311
 40
10.98106184135311
 40
11.98106184135312
 40
11.98106184135312
 40
11.98106184135312
 40
12.98106184135312
 40
12.98106184135312
 40
12.98106184135312
 40
13.98106184135311
 40
13.98106184135311
 40
13.98106184135311
 40
14.98106184135312
 40
14.98106184135312
 40
14.98106184135312
 40
15.98106184135312
 40
15.98106184135312
 40
15.98106184135312
 40
16.98106184135312
 40
16.98106184135312
 40
16.98106184135312
 40
17.98106184135312
 40
17.98106184135312
 40
17.98106184135312
 40
18.98106184135311
 40
18.98106184135311
 40
18.98106184135311
 40
19.98106184135312
 40
19.98106184135312
 40
19.98106184135312
 40
20.98106184135312
 40
20.98106184135312
 40
20.98106184135312
 40
21.98106184135312
 40
21.98106184135312
 40
21.98106184135312
 40
22.98106184135312
 40
22.98106184135312
 40
22.98106184135312
 40
23.98106184135312
 40
23.98106184135312
 40
23.98106184135312
 40
24.98106184135312
 40
24.98106184135312
 40
24.98106184135312
 40
25.98106184135312
 40
25.98106184135312
 40
25.98106184135312
 40
26.98106184135312
 40
26.98106184135312
 40
26.98106184135312
 40
27.98106184135312
 40
27.98106184135312
 40
27.98106184135312
 40
28.98106184135312
 40
28.98106184135312
 40
28.98106184135312
 40
29.98106184135312
 40
29.98106184135312
 40
29.98106184135312
 40
30.98106184135312
 40
30.98106184135312
 40
30.98106184135312
 40
31.98106184135312
 40
31.98106184135312
 40
31.98106184135312
 40
32.98106184135312
 40
32.98106184135312
 40
32.98106184135312
 40
33.88265815610229
 40
33.88265815610229
 40
33.88265815610229
 40
34.74268729748631
 40
34.74268729748631
 40
34.74268729748631
 40
35.60271643887033
 40
35.60271643887033
 40
35.60271643887033
 40
36.37607887685832
 40
36.37607887685832
 40
36.37607887685832
 40
37.6491936978354
 40
37.6491936978354
 40
37.6491936978354
 40
38.59583011175206
 40
38.59583011175206
 40
38.59583011175206
 40
39.59583011175206
 40
39.59583011175206
 40
39.59583011175206
 40
40.59583011175205
 40
40.59583011175205
 40
40.59583011175205
 40
41.59583011175206
 40
41.59583011175206
 40
41.59583011175206
 40
42.59583011175206
 40
42.59583011175206
 40
42.59583011175206
 40
43.59583011175206
 40
43.59583011175206
 40
43.59583011175206
 40
44.59583011175205
 40
44.59583011175205
 40
44.59583011175205
 40
45.59583011175205
 40
45.59583011175205
 40
45.59583011175205
 40
46.59583011175206
 40
46.59583011175206
 40
46.59583011175206
 40
47.59583011175205
 40
47.59583011175205
 40
47.59583011175205
 40
48.59583011175206
 40
48.59583011175206
 40
48.59583011175206
 40
49.59583011175205
 40
49.59583011175205
 40
49.59583011175205
 40
50.59583011175206
 40
50.59583011175206
 40
50.59583011175206
 40
51.59583011175206
 40
51.59583011175206
 40
51.59583011175206
 40
52.59583011175205
 40
52.59583011175205
 40
52.59583011175205
 40
53.59583011175206
 40
53.59583011175206
 40
53.59583011175206
 40
54.59583011175205
 40
54.59583011175205
 40
54.59583011175205
 40
55.59583011175206
 40
55.59583011175206
 40
55.59583011175206
 40
56.59583011175206
 40
56.59583011175206
 40
56.59583011175206
 40
57.59583011175205
 40
57.59583011175205
 40
57.59583011175205
 40
58.59583011175206
 40
58.59583011175206
 40
58.59583011175206
 40
59.59583011175205
 40
59.59583011175205
 40
59.59583011175205
 40
60.59583011175206
 40
60.59583011175206
 40
60.59583011175206
 40
61.59583011175206
 40
61.59583011175206
 40
61.59583011175206
 40
62.59583011175205
 40
62.59583011175205
 40
62.59583011175205
 40
63.59583011175206
 40
63.59583011175206
 40
63.59583011175206
 40
64.59583011175206
 40
64.59583011175206
 40
64.59583011175206
 40
65.59583011175206
 40
65.59583011175206
 40
65.59583011175206
 40
66.59583011175207
 40
66.59583011175207
 40
66.59583011175207
 40
67.59583011175206
 40
67.59583011175206
 40
67.59583011175206
 40
68.59583011175207
 40
68.59583011175207
 40
68.59583011175207
 40
69.59583011175206
 40
69.59583011175206
 40
69.59583011175206
 40
70.59583011175206
 40
70.59583011175206
 40
70.59583011175206
 40
71.59583011175207
 40
71.59583011175207
 40
71.59583011175207
 40
72.59583011175206
 40
72.59583011175206
 40
72.59583011175206
 40
73.59583011175207
 40
73.59583011175207
 40
73.59583011175207
 40
74.59583011175206
 40
74.59583011175206
 40
74.59583011175206
 40
75.59583011175206
 40
75.59583011175206
 40
75.59583011175206
 40
76.59583011175207
 40
76.59583011175207
 40
76.59583011175207
 40
77.59583011175206
 40
77.59583011175206
 40
77.59583011175206
 40
78.59583011175207
 40
78.59583011175207
 40
78.59583011175207
 40
79.59583011175206
 40
79.59583011175206
 40
79.59583011175206
 40
80.59583011175206
 40
80.59583011175206
 40
80.59583011175206
 40
81.59583011175206
 40
81.59583011175206
 40
81.59583011175206
 40
82.59583011175207
 40
82.59583011175207
 40
82.59583011175207
 40
83.59583011175207
 40
83.59583011175207
 40
83.59583011175207
 40
84.59583011175206
 40
84.59583011175206
 40
84.59583011175206
 40
85.59583011175206
 40
85.59583011175206
 40
85.59583011175206
 40
86.59583011175206
 40
86.59583011175206
 40
86.59583011175206
 40
87.59583011175207
 40
87.59583011175207
 40
87.59583011175207
 40
88.59583011175207
 40
88.59583011175207
 40
88.59583011175207
 40
89.59583011175206
 40
89.59583011175206
 40
89.59583011175206
 40
90.59583011175206
 40
90.59583011175206
 40
90.59583011175206
 40
91.59583011175206
 40
91.59583011175206
 40
91.59583011175206
 40
92.59583011175207
 40
92.59583011175207
 40
92.59583011175207
 40
93.59583011175207
 40
93.59583011175207
 40
93.59583011175207
 40
94.59583011175206
 40
94.59583011175206
 40
94.59583011175206
 40
95.59583011175206
 40
95.59583011175206
 40
95.59583011175206
 40
96.59583011175207
 40
96.59583011175207
 40
96.59583011175207
 40
97.59583011175207
 40
97.59583011175207
 40
97.59583011175207
 40
98.59583011175207
 40
98.59583011175207
 40
98.59583011175207
 40
99.59583011175206
 40
99.59583011175206
 40
99.59583011175206
 40
100.595830111752
 40
100.595830111752
 40
100.595830111752
 40
101.595830111752
 40
101.595830111752
 40
101.595830111752
 40
102.595830111752
 40
102.595830111752
 40
102.595830111752
 40
103.595830111752
 40
103.595830111752
 40
103.595830111752
 40
104.595830111752
 40
104.595830111752
 40
104.595830111752
 40
105.595830111752
 40
105.595830111752
 40
105.595830111752
 40
106.595830111752
 40
106.595830111752
 40
106.595830111752
 40
107.595830111752
 40
107.595830111752
 40
107.595830111752
 40
108.595830111752
 40
108.595830111752
 40
108.595830111752
 40
109.4262404410597
 40
109.4262404410597
 40
109.4262404410597
 40
110.6262808671523
 40
110.6262808671523
 40
110.6262808671523
 40
111.5092635784583
 40
111.5092635784583
 40
111.5092635784583
 40
112.5092635784583
 40
112.5092635784583
 40
112.5092635784583
 40
113.5092635784583
 40
113.5092635784583
 40
113.5092635784583
 40
114.5092635784583
 40
114.5092635784583
 40
114.5092635784583
 40
115.5092635784583
 40
115.5092635784583
 40
115.5092635784583
 40
116.5092635784583
 40
116.5092635784583
 40
116.5092635784583
 40
117.5092635784583
 40
117.5092635784583
 40
117.5092635784583
 40
118.5092635784583
 40
118.5092635784583
 40
118.5092635784583
 40
119.5092635784583
 40
119.5092635784583
 40
119.5092635784583
 40
120.5092635784583
 40
120.5092635784583
 40
120.5092635784583
 40
121.5092635784583
 40
121.5092635784583
 40
121.5092635784583
 40
122.5092635784583
 40
122.5092635784583
 40
122.5092635784583
 40
123.5092635784583
 40
123.5092635784583
 40
123.5092635784583
 40
124.5092635784583
 40
124.5092635784583
 40
124.5092635784583
 40
125.5092635784583
 40
125.5092635784583
 40
125.5092635784583
 40
126.5092635784583
 40
126.5092635784583
 40
126.5092635784583
 40
127.5092635784583
 40
127.5092635784583
 40
127.5092635784583
 40
128.5092635784583
 40
128.5092635784583
 40
128.5092635784583
 40
129.5092635784583
 40
129.5092635784583
 40
129.5092635784583
 40
130.5092635784583
 40
130.5092635784583
 40
130.5092635784583
 40
131.5092635784583
 40
131.5092635784583
 40
131.5092635784583
 40
132.5092635784583
 40
132.5092635784583
 40
132.5092635784583
 40
133.5092635784583
 40
133.5092635784583
 40
133.5092635784583
 40
134.5092635784583
 40
134.5092635784583
 40
134.5092635784583
 40
135.5092635784583
 40
135.5092635784583
 40
135.5092635784583
 40
136.5092635784583
 40
136.5092635784583
 40
136.5092635784583
 40
137.5092635784583
 40
137.5092635784583
 40
137.5092635784583
 40
138.5092635784583
 40
138.5092635784583
 40
138.5092635784583
 40
139.5092635784583
 40
139.5092635784583
 40
139.5092635784583
 40
140.5092635784583
 40
140.5092635784583
 40
140.5092635784583
 40
141.5092635784583
 40
141.5092635784583
 40
141.5092635784583
 40
142.5092635784583
 40
142.5092635784583
 40
142.5092635784583
 40
143.5092635784583
 40
143.5092635784583
 40
143.5092635784583
 40
144.5092635784583
 40
144.5092635784583
 40
144.5092635784583
 40
145.5092635784583
 40
145.5092635784583
 40
145.5092635784583
 40
146.5092635784583
 40
146.5092635784583
 40
146.5092635784583
 40
147.5092635784583
 40
147.5092635784583
 40
147.5092635784583
 40
148.5092635784583
 40
148.5092635784583
 40
148.5092635784583
 40
149.5092635784583
 40
149.5092635784583
 40
149.5092635784583
 40
150.5092635784583
 40
150.5092635784583
 40
150.5092635784583
 40
151.5092635784583
 40
151.5092635784583
 40
151.5092635784583
 40
152.5092635784583
 40
152.5092635784583
 40
152.5092635784583
 40
153.5092635784583
 40
153.5092635784583
 40
153.5092635784583
 40
154.5092635784583
 40
154.5092635784583
 40
154.5092635784583
 40
155.5092635784583
 40
155.5092635784583
 40
155.5092635784583
 40
156.5092635784583
 40
156.5092635784583
 40
156.5092635784583
 40
157.5092635784583
 40
157.5092635784583
 40
157.5092635784583
 40
158.5092635784583
 40
158.5092635784583
 40
158.5092635784583
 40
159.5092635784583
 40
159.5092635784583
 40
159.5092635784583
 40
160.5092635784583
 40
160.5092635784583
 40
160.5092635784583
 40
161.5092635784583
 40
161.5092635784583
 40
161.5092635784583
 40
162.5092635784583
 40
162.5092635784583
 40
162.5092635784583
 40
163.5092635784583
 40
163.5092635784583
 40
163.5092635784583
 40
164.5092635784583
 40
164.5092635784583
 40
164.5092635784583
 40
165.5092635784583
 40
165.5092635784583
 40
165.5092635784583
 40
166.5092635784583
 40
166.5092635784583
 40
166.5092635784583
 40
167.5092635784583
 40
167.5092635784583
 40
167.5092635784583
 40
168.5092635784583
 40
168.5092635784583
 40
168.5092635784583
 40
169.5092635784583
 40
169.5092635784583
 40
169.5092635784583
 40
170.5092635784583
 40
170.5092635784583
 40
170.5092635784583
 40
171.5092635784583
 40
171.5092635784583
 40
171.5092635784583
 40
172.5092635784583
 40
172.5092635784583
 40
172.5092635784583
 40
173.5092635784583
 40
173.5092635784583
 40
173.5092635784583
 40
174.5092635784583
 40
174.5092635784583
 40
174.5092635784583
 40
175.5092635784583
 40
175.5092635784583
 40
175.5092635784583
 40
176.5092635784583
 40
176.5092635784583
 40
176.5092635784583
 40
177.5092635784583
 40
177.5092635784583
 40
177.5092635784583
 40
178.5092635784583
 40
178.5092635784583
 40
178.5092635784583
 40
179.5092635784583
 40
179.5092635784583
 40
179.5092635784583
 40
180.5092635784583
 40
180.5092635784583
 40
180.5092635784583
 40
181.5092635784583
 40
181.5092635784583
 40
181.5092635784583
 40
182.5092635784583
 40
182.5092635784583
 40
182.5092635784583
 40
183.5092635784583
 40
183.5092635784583
 40
183.5092635784583
 40
184.5092635784583
 40
184.5092635784583
 40
184.5092635784583
 40
185.5092635784583
 40
185.5092635784583
 40
185.5092635784583
 40
186.5092635784583
 40
186.5092635784583
 40
186.5092635784583
 40
187.5092635784583
 40
187.5092635784583
 40
187.5092635784583
 40
188.5092635784583
 40
188.5092635784583
 40
188.5092635784583
 40
189.5092635784583
 40
189.5092635784583
 40
189.5092635784583
 40
190.5092635784583
 40
190.5092635784583
 40
190.5092635784583
 40
191.5092635784583
 40
191.5092635784583
 40
191.5092635784583
 40
192.5092635784583
 40
192.5092635784583
 40
192.5092635784583
 40
193.5092635784583
 40
193.5092635784583
 40
193.5092635784583
 40
194.5092635784583
 40
194.5092635784583
 40
194.5092635784583
 40
195.5092635784583
 40
195.5092635784583
 40
195.5092635784583
 40
196.5092635784583
 40
196.5092635784583
 40
196.5092635784583
 40
197.5092635784583
 40
197.5092635784583
 40
197.5092635784583
 40
198.5092635784583
 40
198.5092635784583
 40
198.5092635784583
 40
199.5092635784583
 40
199.5092635784583
 40
199.5092635784583
 40
200.5092635784583
 40
200.5092635784583
 40
200.5092635784583
 40
201.5092635784583
 40
201.5092635784583
 40
201.5092635784583
 40
202.5092635784583
 40
202.5092635784583
 40
202.5092635784583
 40
203.5092635784583
 40
203.5092635784583
 40
203.5092635784583
 40
204.3446708093778
 40
204.3446708093778
 40
204.3446708093778
 40
205.2684280462573
 40
205.2684280462573
 40
205.2684280462573
 40
206.1921852831367
 40
206.1921852831367
 40
206.1921852831367
 40
206.7389847398623
 40
206.7389847398623
 40
206.7389847398623
 40
207.7389847398623
 40
207.7389847398623
 40
207.7389847398623
 40
208.7389847398623
 40
208.7389847398623
 40
208.7389847398623
 40
209.7389847398623
 40
209.7389847398623
 40
209.7389847398623
 40
210.7389847398623
 40
210.7389847398623
 40
210.7389847398623
 40
211.7389847398623
 40
211.7389847398623
 40
211.7389847398623
 40
212.6301685991806
 40
212.6301685991806
 40
212.6301685991806
 40
213.953799712671
 40
213.953799712671
 40
213.953799712671
 40
214.8636598747754
 40
214.8636598747754
 40
214.8636598747754
 40
215.8636598747754
 40
215.8636598747754
 40
215.8636598747754
 40
216.8636598747754
 40
216.8636598747754
 40
216.8636598747754
 40
217.8636598747754
 40
217.8636598747754
 40
217.8636598747754
 40
218.8636598747754
 40
218.8636598747754
 40
218.8636598747754
 40
219.8636598747754
 40
219.8636598747754
 40
219.8636598747754
 40
220.8636598747754
 40
220.8636598747754
 40
220.8636598747754
 40
221.8636598747754
 40
221.8636598747754
 40
221.8636598747754
 40
222.8636598747754
 40
222.8636598747754
 40
222.8636598747754
 40
223.8636598747754
 40
223.8636598747754
 40
223.8636598747754
 40
224.8636598747754
 40
224.8636598747754
 40
224.8636598747754
 40
225.8636598747754
 40
225.8636598747754
 40
225.8636598747754
 40
226.8636598747754
 40
226.8636598747754
 40
226.8636598747754
 40
227.8636598747754
 40
227.8636598747754
 40
227.8636598747754
 40
228.8636598747754
 40
228.8636598747754
 40
228.8636598747754
 40
229.4331172922799
 40
229.4331172922799
 40
229.4331172922799
 40
230.242912578166
 40
230.242912578166
 40
230.242912578166
 40
231.052707864052
 40
231.052707864052
 40
231.052707864052
 40
231.9987963848074
 40
231.9987963848074
 40
231.9987963848074
 40
232.9987963848073
 40
232.9987963848073
 40
232.9987963848073
 40
233.9987963848074
 40
233.9987963848074
 40
233.9987963848074
 40
234.9987963848073
 40
234.9987963848073
 40
234.9987963848073
 40
235.9477097962103
 40
235.9477097962103
 40
235.9477097962103
 40
236.9069970869136
 40
236.9069970869136
 40
236.9069970869136
 40
237.9069970869136
 40
237.9069970869136
 40
237.9069970869136
 40
238.9069970869136
 40
238.9069970869136
 40
238.9069970869136
 40
239.9069970869136
 40
239.9069970869136
 40
239.9069970869136
 40
240.9069970869136
 40
240.9069970869136
 40
240.9069970869136
 40
241.9069970869136
 40
241.9069970869136
 40
241.9069970869136
 40
242.9069970869136
 40
242.9069970869136
 40
242.9069970869136
 40
243.9069970869136
 40
243.9069970869136
 40
243.9069970869136
 40
244.9069970869136
 40
244.9069970869136
 40
244.9069970869136
 40
245.9069970869136
 40
245.9069970869136
 40
245.9069970869136
 40
246.9069970869136
 40
246.9069970869136
 40
246.9069970869136
 40
247.9069970869136
 40
247.9069970869136
 40
247.9069970869136
 40
248.9069970869136
 40
248.9069970869136
 40
248.9069970869136
 40
249.9069970869136
 40
249.9069970869136
 40
249.9069970869136
 40
250.9069970869136
 40
250.9069970869136
 40
250.9069970869136
 40
251.9069970869136
 40
251.9069970869136
 40
251.9069970869136
 40
252.9069970869136
 40
252.9069970869136
 40
252.9069970869136
 40
253.9069970869136
 40
253.9069970869136
 40
253.9069970869136
 40
254.9069970869136
 40
254.9069970869136
 40
254.9069970869136
 40
255.9069970869136
 40
255.9069970869136
 40
255.9069970869136
 40
256.9069970869136
 40
256.9069970869136
 40
256.9069970869136
 40
257.9069970869136
 40
257.9069970869136
 40
257.9069970869136
 40
258.9069970869136
 40
258.9069970869136
 40
258.9069970869136
 40
259.9069970869136
 40
259.9069970869136
 40
259.9069970869136
 40
260.9069970869136
 40
260.9069970869136
 40
260.9069970869136
 40
261.9069970869136
 40
261.9069970869136
 40
261.9069970869136
 40
262.9069970869136
 40
262.9069970869136
 40
262.9069970869136
 40
263.9069970869136
 40
263.9069970869136
 40
263.9069970869136
 40
264.9069970869136
 40
264.9069970869136
 40
264.9069970869136
 40
265.9069970869136
 40
265.9069970869136
 40
265.9069970869136
 40
266.9069970869136
 40
266.9069970869136
 40
266.9069970869136
 40
267.9069970869136
 40
267.9069970869136
 40
267.9069970869136
 40
268.9069970869136
 40
268.9069970869136
 40
268.9069970869136
 40
269.9069970869136
 40
269.9069970869136
 40
269.9069970869136
 40
270.9069970869136
 40
270.9069970869136
 40
270.9069970869136
 40
271.9069970869136
 40
271.9069970869136
 40
271.9069970869136
 40
271.9069970869136
 10
197.4433830303151
 20
544.5942949535907
 30
0.0
 41
1.0
 10
198.3569380817158
 20
549.2965672830833
 30
0.0
 41
1.0
 10
199.2704931331165
 20
553.998839612576
 30
0.0
 41
1.0
 10
200.1840481845172
 20
558.7011119420687
 30
0.0
 41
1.0
 10
195.4790547396314
 20
562.6015534628553
 30
0.0
 41
1.0
 10
190.7740612947455
 20
566.5019949836418
 30
0.0
 41
1.0
 10
186.0690678498597
 20
570.4024365044282
 30
0.0
 41
1.0
 10
192.2950062879262
 20
570.4623538802692
 30
0.0
 41
1.0
 10
198.5209447259927
 20
570.5222712561101
 30
0.0
 41
1.0
 10
204.7468831640593
 20
570.582188631951
 30
0.0
 41
1.0
 10
206.7516054881032
 20
577.1237764556198
 30
0.0
 41
1.0
 10
208.756327812147
 20
583.6653642792888
 30
0.0
 41
1.0
 10
210.7610501361909
 20
590.2069521029578
 30
0.0
 41
1.0
 10
212.765904553215
 20
583.6653642792888
 30
0.0
 41
1.0
 10
214.7707589702391
 20
577.1237764556198
 30
0.0
 41
1.0
 10
216.7756133872632
 20
570.5821886319507
 30
0.0
 41
1.0
 10
222.991565596023
 20
570.5737082626186
 30
0.0
 41
1.0
 10
229.2075178047827
 20
570.5652278932866
 30
0.0
 41
1.0
 10
235.4234700135425
 20
570.5567475239546
 30
0.0
 41
1.0
 10
231.0146554489704
 20
566.6885102717531
 30
0.0
 41
1.0
 10
226.6058408843984
 20
562.8202730195514
 30
0.0
 41
1.0
 10
222.1970263198265
 20
558.9520357673497
 30
0.0
 41
1.0
 10
223.1899160454501
 20
553.8965305046826
 30
0.0
 41
1.0
 10
224.1828057710738
 20
548.8410252420156
 30
0.0
 41
1.0
 10
225.1756954966976
 20
543.7855199793488
 30
0.0
 41
1.0
 10
232.1288854151946
 20
543.4816799262391
 30
0.0
 41
1.0
 10
229.3925955072573
 20
535.4378319356409
 30
0.0
 41
1.0
 10
224.7621399032778
 20
533.120038224279
 30
0.0
 41
1.0
 10
225.018136099
 20
530.3035516994142
 30
0.0
 41
1.0
 10
225.2741322947222
 20
527.4870651745494
 30
0.0
 41
1.0
 10
225.5301284904444
 20
524.6705786496846
 30
0.0
 41
1.0
 10
244.0441220905394
 20
547.2228924233497
 30
0.0
 41
1.0
 10
264.9068609724381
 20
522.5484256661996
 30
0.0
 41
1.0
 10
252.9780722980904
 20
508.865072353803
 30
0.0
 41
1.0
 10
249.7548979056355
 20
505.1677898366392
 30
0.0
 41
1.0
 10
244.6684199337912
 20
504.8219968329439
 30
0.0
 41
1.0
 10
241.2963239154038
 20
506.1698207662105
 30
0.0
 41
1.0
 10
235.4898863640115
 20
508.4902717316451
 30
0.0
 41
1.0
 10
232.7541350686747
 20
516.2122424268172
 30
0.0
 41
1.0
 10
238.0743383597713
 20
519.928070798408
 30
0.0
 41
1.0
 10
244.5760076848091
 20
524.4691896919972
 30
0.0
 41
1.0
 10
247.2150669186038
 20
516.5336246477627
 30
0.0
 41
1.0
 10
246.5658035020849
 20
516.7166262625994
 30
0.0
 41
1.0
 10
241.9108732967134
 20
518.0287850911988
 30
0.0
 41
1.0
 10
238.9715931374092
 20
513.3339892243882
 30
0.0
 41
1.0
 10
242.9352787060787
 20
511.373561268342
 30
0.0
 41
1.0
 10
255.6335374800319
 20
505.0233857906312
 30
0.0
 41
1.0
 10
251.5420366726136
 20
540.1803815999812
 30
0.0
 41
1.0
 10
229.4771459960665
 20
519.2171463787089
 30
0.0
 41
1.0
 10
226.7883141273141
 20
516.5283937657448
 30
0.0
 41
1.0
 10
224.0994822585617
 20
513.8396411527804
 30
0.0
 41
1.0
 10
221.4106503898093
 20
511.1508885398162
 30
0.0
 41
1.0
 10
245.181759673634
 20
510.9566326030624
 30
0.0
 41
1.0
 10
249.5860830768775
 20
486.6705984636318
 30
0.0
 41
1.0
 10
246.2348313307735
 20
469.818995019968
 30
0.0
 41
1.0
 10
253.6786934653299
 20
473.9980734732913
 30
0.0
 41
1.0
 10
268.9749813223524
 20
481.7088691023345
 30
0.0
 41
1.0
 10
277.3266392543707
 20
470.7497749959931
 30
0.0
 41
1.0
 10
273.1833051615027
 20
469.4693184826534
 30
0.0
 41
1.0
 10
269.5300096067618
 20
469.6948804557262
 30
0.0
 41
1.0
 10
265.2251522176456
 20
469.6948804557262
 30
0.0
 41
1.0
 10
266.2527827667892
 20
466.3179498342619
 30
0.0
 41
1.0
 10
268.2658797857808
 20
465.4279865891336
 30
0.0
 41
1.0
 10
268.2658797857808
 20
461.8753458853422
 30
0.0
 41
1.0
 10
263.830567369371
 20
463.300761235207
 30
0.0
 41
1.0
 10
261.0461530201105
 20
463.384693114857
 30
0.0
 41
1.0
 10
257.3434018535644
 20
467.3985232498891
 30
0.0
 41
1.0
 10
247.0101114504497
 20
465.0792611212767
 30
0.0
 41
1.0
 10
242.6093545576729
 20
463.0476975036463
 30
0.0
 41
1.0
 10
240.2770944798041
 20
452.3181281597852
 30
0.0
 41
1.0
 10
245.9480046334613
 20
457.9884042671372
 30
0.0
 41
1.0
 10
249.0140940538042
 20
461.301296211777
 30
0.0
 41
1.0
 10
257.2815030830199
 20
459.0206316519934
 30
0.0
 41
1.0
 10
261.3372595299828
 20
457.9016984349018
 30
0.0
 41
1.0
 10
264.5583732719458
 20
457.3396956411354
 30
0.0
 41
1.0
 10
268.3402217150649
 20
457.1475796106615
 30
0.0
 41
1.0
 10
272.1689103289801
 20
456.9534821854839
 30
0.0
 41
1.0
 10
272.3347134377884
 20
456.4138295239755
 30
0.0
 41
1.0
 10
275.1096963482591
 20
453.6384503345641
 30
0.0
 41
1.0
 10
276.9859978769051
 20
459.8085134419854
 30
0.0
 41
1.0
 10
278.1245865294577
 20
463.860941145846
 30
0.0
 41
1.0
 10
285.0842750542101
 20
463.860941145846
 30
0.0
 41
1.0
 10
285.0842750542101
 20
459.0250699761297
 30
0.0
 41
1.0
 10
286.0397828361378
 20
452.4422427240271
 30
0.0
 41
1.0
 10
279.3747673317243
 20
452.4422427240271
 30
0.0
 41
1.0
 10
281.6693016544341
 20
445.7875304720729
 30
0.0
 41
1.0
 10
282.3131756773588
 20
443.217899308697
 30
0.0
 41
1.0
 10
280.740106794172
 20
436.1826007620502
 30
0.0
 41
1.0
 10
286.8473200615909
 20
437.1728225791872
 30
0.0
 41
1.0
 10
290.2154532905707
 20
437.8782783495039
 30
0.0
 41
1.0
 10
294.7653695766444
 20
433.3274902497605
 30
0.0
 41
1.0
 10
288.7294072627717
 20
427.2915279358878
 30
0.0
 41
1.0
 10
285.1456190342377
 20
430.7213221680478
 30
0.0
 41
1.0
 10
278.2577362535484
 20
430.7213221680478
 30
0.0
 41
1.0
 10
274.7636655771994
 20
421.2870301699104
 30
0.0
 41
1.0
 10
273.7199461030615
 20
414.6633861869108
 30
0.0
 41
1.0
 10
280.635013619086
 20
408.9949329626863
 30
0.0
 41
1.0
 10
284.8874036764474
 20
405.5090256325167
 30
0.0
 41
1.0
 10
289.7253354966556
 20
403.8477450571197
 30
0.0
 41
1.0
 10
293.7952787296973
 20
407.6685873480082
 30
0.0
 41
1.0
 10
298.219807778961
 20
411.822152490316
 30
0.0
 41
1.0
 10
295.1388746227575
 20
416.1358140590357
 30
0.0
 41
1.0
 10
291.2295762173341
 20
417.6185197922432
 30
0.0
 41
1.0
 10
290.7580037034051
 20
417.7973762512581
 30
0.0
 41
0.939306450321551
 10
290.2548008997751
 20
417.7633585023087
 30
0.0
 41
0.939306450321551
 10
289.8115912995256
 20
417.5226605192028
 30
0.0
 41
1.0
 10
289.368381699276
 20
417.2819625360969
 30
0.0
 41
0.939306450321551
 10
289.065865194079
 20
416.8784107638197
 30
0.0
 41
0.939306450321551
 10
288.9591241855446
 20
416.3854841709869
 30
0.0
 41
1.0
 10
288.4399490426467
 20
413.9879498232581
 30
0.0
 41
1.0
 10
291.9664106056121
 20
412.2606759721813
 30
0.0
 41
1.0
 10
288.3409668083347
 20
410.0337661573038
 30
0.0
 41
1.0
 10
287.6789372454375
 20
409.6271179746841
 30
0.0
 41
0.8694312664019721
 10
286.9048440930335
 20
409.6936437439709
 30
0.0
 41
0.8694312664019721
 10
286.3219044389115
 20
410.2072849088225
 30
0.0
 41
1.0
 10
281.0363602605261
 20
414.8644960789044
 30
0.0
 41
1.0
 10
283.4446992434095
 20
424.5885006533204
 30
0.0
 41
1.0
 10
291.489331573494
 20
423.2934697026975
 30
0.0
 41
1.0
 10
302.9372753811401
 20
421.4503763492861
 30
0.0
 41
1.0
 10
303.4772450658012
 20
410.5523091998196
 30
0.0
 41
1.0
 10
297.3153453045593
 20
404.0989859055528
 30
0.0
 41
1.0
 10
294.0565850632254
 20
400.6858353889042
 30
0.0
 41
1.0
 10
290.2000776676697
 20
401.4184758945561
 30
0.0
 41
1.0
 10
285.8290416954489
 20
400.5602149646876
 30
0.0
 41
1.0
 10
289.2499592793362
 20
397.9259903339701
 30
0.0
 41
1.0
 10
291.0447066019766
 20
396.1864842956698
 30
0.0
 41
1.0
 10
293.6479422195278
 20
392.7400463479984
 30
0.0
 41
1.0
 10
295.7020937367807
 20
399.813387672957
 30
0.0
 41
1.0
 10
297.1676917712372
 20
401.6773252986517
 30
0.0
 41
1.0
 10
304.819362582321
 20
401.6773252986517
 30
0.0
 41
1.0
 10
303.9157673416311
 20
395.1711383936893
 30
0.0
 41
1.0
 10
302.6489428238531
 20
390.9881764067468
 30
0.0
 41
1.0
 10
296.1309468064565
 20
388.8929703912325
 30
0.0
 41
1.0
 10
296.5446620205958
 20
388.1068850657719
 30
0.0
 41
1.0
 10
296.958377234735
 20
387.3207997403113
 30
0.0
 41
1.0
 10
297.3720924488743
 20
386.5347144148507
 30
0.0
 41
1.0
 10
297.3720924488742
 20
386.5347144148507
 30
0.0
 41
1.0
 10
299.2835042916703
 20
388.6115330875144
 30
0.0
 41
1.0
 10
299.7923264515886
 20
388.954869161777
 30
0.0
 41
1.0
 10
307.8317165782988
 20
394.3774709311625
 30
0.0
 41
1.0
 10
320.2367532836356
 20
380.1713464401333
 30
0.0
 41
1.0
 10
308.5631682471285
 20
378.1465195644956
 30
0.0
 41
1.0
 10
304.9615474662608
 20
377.5217461865149
 30
0.0
 41
1.0
 10
303.5790094977849
 20
377.8411470127565
 30
0.0
 41
1.0
 10
302.1865645557902
 20
382.3671280508091
 30
0.0
 41
1.0
 10
310.8504902931167
 20
378.837471525581
 30
0.0
 41
1.0
 10
308.247571698718
 20
387.0707213101042
 30
0.0
 41
1.0
 10
302.4610273501512
 20
385.4176040808867
 30
0.0
 41
1.0
 10
299.0406645567809
 20
384.440380213006
 30
0.0
 41
1.0
 10
299.4172880620663
 20
382.3928861819576
 30
0.0
 41
1.0
 10
300.4739262296724
 20
379.9174108949031
 30
0.0
 41
1.0
 10
301.2874868950248
 20
378.0112299341248
 30
0.0
 41
1.0
 10
301.3460569224671
 20
369.1944990372466
 30
0.0
 41
1.0
 10
302.526254863798
 20
363.2591123185353
 30
0.0
 41
1.0
 10
304.6194002288205
 20
352.7318037460312
 30
0.0
 41
1.0
 10
312.7478738614104
 20
355.4933131725165
 30
0.0
 41
1.0
 10
317.747963024172
 20
357.7350631403188
 30
0.0
 41
1.0
 10
323.5822193572047
 20
360.3503456376687
 30
0.0
 41
1.0
 10
325.5291377930917
 20
363.6538061435187
 30
0.0
 41
1.0
 10
323.0875839833651
 20
367.5945624418771
 30
0.0
 41
1.0
 10
319.9163221321481
 20
372.7136145426507
 30
0.0
 41
1.0
 10
313.9477272382023
 20
368.1015617186681
 30
0.0
 41
1.0
 10
316.1141842072628
 20
362.0831149339764
 30
0.0
 41
1.0
 10
311.7253156827084
 20
363.0594669881873
 30
0.0
 41
1.0
 10
308.3082816324404
 20
369.35451647352
 30
0.0
 41
1.0
 10
313.1114994174392
 20
373.5843186312587
 30
0.0
 41
1.0
 10
318.6983984356581
 20
378.504042424837
 30
0.0
 41
1.0
 10
324.5347154191827
 20
375.8703725846365
 30
0.0
 41
1.0
 10
327.6205395307749
 20
371.3220414143258
 30
0.0
 41
1.0
 10
331.9191357126272
 20
364.9856204075792
 30
0.0
 41
1.0
 10
329.3071819583797
 20
360.0679572644928
 30
0.0
 41
1.0
 10
324.7784269677418
 20
355.5850913751934
 30
0.0
 41
1.0
 10
324.0080607069308
 20
354.8228884605617
 30
0.0
 41
1.0
 10
323.4037353222926
 20
354.1962129436654
 30
0.0
 41
1.0
 10
323.3116400964631
 20
354.0138453751339
 30
0.0
 41
1.0
 10
321.6893533688355
 20
350.8096131160467
 30
0.0
 41
1.0
 10
330.7980625892557
 20
352.4192981733586
 30
0.0
 41
1.0
 10
329.8293190907071
 20
342.0403564362699
 30
0.0
 41
1.0
 10
323.736847399884
 20
341.8398392922523
 30
0.0
 41
1.0
 10
320.2117084545804
 20
344.4590845790096
 30
0.0
 41
1.0
 10
317.2174247783007
 20
349.0154998397116
 30
0.0
 41
1.0
 10
315.0267947938547
 20
352.3525647997369
 30
0.0
 41
1.0
 10
303.6107118130446
 20
348.894159228055
 30
0.0
 41
1.0
 10
299.0475598103499
 20
353.4566771844445
 30
0.0
 41
1.0
 10
297.3865962581055
 20
350.2854153332275
 30
0.0
 41
1.0
 10
295.1114003477041
 20
347.7248193297006
 30
0.0
 41
1.0
 10
292.6655667254175
 20
345.2252502830486
 30
0.0
 41
1.0
 10
290.641928686602
 20
343.1559609102592
 30
0.0
 41
1.0
 10
290.7989344029257
 20
343.58116821368
 30
0.0
 41
1.0
 10
292.9850468074472
 20
341.5369236699457
 30
0.0
 41
1.0
 10
296.9937253162495
 20
337.7895514946716
 30
0.0
 41
1.0
 10
305.2883190808003
 20
330.5693491942724
 30
0.0
 41
1.0
 10
306.0605082247387
 20
333.659690885789
 30
0.0
 41
1.0
 10
308.0778850562904
 20
341.7320514203693
 30
0.0
 41
1.0
 10
315.184117533331
 20
343.1324219411788
 30
0.0
 41
1.0
 10
320.7767229682966
 20
340.6285730819668
 30
0.0
 41
1.0
 10
330.7703230634035
 20
336.154504585152
 30
0.0
 41
1.0
 10
330.3677829153933
 20
330.4280361240022
 30
0.0
 41
1.0
 10
327.3166728390105
 20
323.3849705101166
 30
0.0
 41
1.0
 10
325.5953163761964
 20
319.4113230596764
 30
0.0
 41
1.0
 10
323.5028050574792
 20
317.1351760798172
 30
0.0
 41
1.0
 10
326.7489636284973
 20
313.8881456951294
 30
0.0
 41
1.0
 10
326.9944188043956
 20
318.3603913088169
 30
0.0
 41
1.0
 10
337.7309626576138
 20
326.5586100349782
 30
0.0
 41
1.0
 10
336.9660650461851
 20
323.4360112376847
 30
0.0
 41
1.0
 10
336.2092515251476
 20
320.3454317788037
 30
0.0
 41
1.0
 10
336.7482701403509
 20
316.6547274920563
 30
0.0
 41
1.0
 10
335.7338753078283
 20
315.3023859788652
 30
0.0
 41
1.0
 10
334.1943316230286
 20
313.2500573447396
 30
0.0
 41
1.0
 10
333.9500652839525
 20
313.4022284579862
 30
0.0
 41
1.0
 10
330.1047329545259
 20
310.2089334976637
 30
0.0
 41
1.0
 10
332.508878032246
 20
306.9558796730766
 30
0.0
 41
1.0
 10
333.164561167605
 20
303.7632187590592
 30
0.0
 41
1.0
 10
333.987474015959
 20
299.7750674993876
 30
0.0
 41
1.0
 10
334.0231391206261
 20
299.6026069043747
 30
0.0
 41
1.0
 10
342.8452594110985
 20
302.6512600513248
 30
0.0
 41
1.0
 10
348.3204077680269
 20
297.2926177029759
 30
0.0
 41
1.0
 10
342.7416720959874
 20
293.124872827358
 30
0.0
 41
1.0
 10
340.5552426683133
 20
293.81725139263
 30
0.0
 41
1.0
 10
333.7392448874754
 20
293.81725139263
 30
0.0
 41
1.0
 10
333.7392448874754
 20
286.7267908174313
 30
0.0
 41
1.0
 10
332.5369345812509
 20
282.7823887528179
 30
0.0
 41
1.0
 10
330.2638785771296
 20
276.1922699682056
 30
0.0
 41
1.0
 10
332.0433295326571
 20
274.4127397568898
 30
0.0
 41
1.0
 10
333.8227804881847
 20
272.6332095455741
 30
0.0
 41
1.0
 10
335.6022314437122
 20
270.8536793342584
 30
0.0
 41
1.0
 10
335.6022314437124
 20
270.8536793342584
 30
0.0
 41
1.0
 10
337.8343122053605
 20
267.7512115071549
 30
0.0
 41
1.0
 10
338.3933032791773
 20
268.0619734524882
 30
0.0
 41
1.0
 10
343.2393191897767
 20
270.7561154590466
 30
0.0
 41
1.0
 10
347.2271534262958
 20
272.8839748592784
 30
0.0
 41
1.0
 10
340.06932543117
 20
275.6958117112384
 30
0.0
 41
1.0
 10
340.06932543117
 20
275.4937887072459
 30
0.0
 41
1.0
 10
341.2174247783005
 20
271.9396421434797
 30
0.0
 41
1.0
 10
338.5795543813281
 20
270.6709947425743
 30
0.0
 41
1.0
 10
336.6280391097284
 20
272.2681573853585
 30
0.0
 41
1.0
 10
335.4143159700104
 20
278.9951509161048
 30
0.0
 41
1.0
 10
339.6332600847728
 20
279.6662096743647
 30
0.0
 41
1.0
 10
346.7823699432021
 20
280.803133955366
 30
0.0
 41
1.0
 10
352.9101104597516
 20
273.3142545331408
 30
0.0
 41
1.0
 10
346.9566534213423
 20
268.2490171125205
 30
0.0
 41
1.0
 10
345.1573621001814
 20
266.718085890033
 30
0.0
 41
1.0
 10
343.3580707790205
 20
265.1871546675455
 30
0.0
 41
1.0
 10
341.5587794578595
 20
263.6562234450581
 30
0.0
 41
1.0
 10
341.7955164970613
 20
263.656223445058
 30
0.0
 41
1.0
 10
354.3155533510028
 20
266.7217580748839
 30
0.0
 41
1.0
 10
357.5064706376808
 20
261.7313381182765
 30
0.0
 41
1.0
 10
354.0268245147749
 20
258.6356070331657
 30
0.0
 41
1.0
 10
349.0367215813201
 20
258.1950241068439
 30
0.0
 41
1.0
 10
344.1652645627248
 20
258.1950241068439
 30
0.0
 41
1.0
 10
344.2893791269666
 20
255.6712292076143
 30
0.0
 41
1.0
 10
344.4134936912084
 20
253.1474343083847
 30
0.0
 41
1.0
 10
344.5376082554501
 20
250.6236394091552
 30
0.0
 41
1.0
 10
344.5376082554501
 20
248.9273541939923
 30
0.0
 41
1.0
 10
344.5376082554501
 20
247.2310689788294
 30
0.0
 41
1.0
 10
344.5376082554501
 20
245.5347837636665
 30
0.0
 41
1.0
 10
349.9418226819849
 20
247.2593897137947
 30
0.0
 41
1.0
 10
354.9208298050988
 20
248.5175753506644
 30
0.0
 41
1.0
 10
358.6656727387685
 20
253.2650137581219
 30
0.0
 41
1.0
 10
355.7041147593781
 20
255.1638072332866
 30
0.0
 41
1.0
 10
354.9062467400793
 20
255.891930159014
 30
0.0
 41
1.0
 10
353.7224822882817
 20
257.5746890529995
 30
0.0
 41
1.0
 10
356.8625966147561
 20
257.5746890529995
 30
0.0
 41
1.0
 10
357.4050232288497
 20
257.4366254700434
 30
0.0
 41
1.0
 10
360.1767566520063
 20
255.5884597461904
 30
0.0
 41
1.0
 10
360.1767566520063
 20
255.5884597461904
 30
0.0
 41
1.0
 10
359.831518438828
 20
258.7065409635593
 30
0.0
 41
1.0
 10
360.5762058242786
 20
259.3271137847681
 30
0.0
 41
1.0
 10
361.3209724655174
 20
259.9477658617652
 30
0.0
 41
1.0
 10
361.5420168586657
 20
261.9185402898851
 30
0.0
 41
1.0
 10
361.5420168586657
 20
261.9185402898851
 30
0.0
 41
1.0
 10
365.2725868068523
 20
258.1879703416986
 30
0.0
 41
1.0
 10
364.6589092392124
 20
253.8878682998714
 30
0.0
 41
1.0
 10
362.4968905942882
 20
249.7496858332331
 30
0.0
 41
1.0
 10
359.6817249992259
 20
244.3615603316926
 30
0.0
 41
1.0
 10
353.8142604909585
 20
242.1388317530461
 30
0.0
 41
1.0
 10
348.2111140361691
 20
240.525817952632
 30
0.0
 41
1.0
 10
344.129282434905
 20
239.3511679164716
 30
0.0
 41
1.0
 10
340.7267521938683
 20
235.0108039342646
 30
0.0
 41
1.0
 10
336.8875225601292
 20
231.3814436275447
 30
0.0
 41
1.0
 10
334.0859097048404
 20
228.7329529549603
 30
0.0
 41
1.0
 10
330.8192238846916
 20
226.8095734881536
 30
0.0
 41
1.0
 10
328.0296579092014
 20
225.0550088501049
 30
0.0
 41
1.0
 10
342.5181707734064
 20
210.2850586821818
 30
0.0
 41
1.0
 10
366.7130607564653
 20
223.5287008819261
 30
0.0
 41
1.0
 10
355.2825532222121
 20
231.3470466154879
 30
0.0
 41
1.0
 10
351.6193506939525
 20
233.8524013346747
 30
0.0
 41
1.0
 10
346.6929694141697
 20
231.2693759431017
 30
0.0
 41
1.0
 10
346.0729513834778
 20
228.0806778184917
 30
0.0
 41
1.0
 10
346.0104185666281
 20
227.759057830182
 30
0.0
 41
1.0
 10
346.3743611458095
 20
227.3332164804559
 30
0.0
 41
1.0
 10
346.8261191382605
 20
226.8905729036422
 30
0.0
 41
1.0
 10
348.7392746083959
 20
225.0172830949459
 30
0.0
 41
1.0
 10
348.4001390909051
 20
223.528146091409
 30
0.0
 41
1.0
 10
348.5553219241014
 20
221.0176397459926
 30
0.0
 41
1.0
 10
341.5131281238855
 20
221.0176397459926
 30
0.0
 41
1.0
 10
339.0821153339827
 20
223.8841630917756
 30
0.0
 41
1.0
 10
342.6205692516953
 20
230.7690341525152
 30
0.0
 41
1.0
 10
347.6801795113571
 20
240.6140296448421
 30
0.0
 41
1.0
 10
360.5986352123249
 20
240.0369682513273
 30
0.0
 41
1.0
 10
363.5611373175567
 20
231.0369187164598
 30
0.0
 41
1.0
 10
365.4344271262531
 20
225.3442924768498
 30
0.0
 41
1.0
 10
362.7665980413602
 20
222.5704984032013
 30
0.0
 41
1.0
 10
358.685717509554
 20
219.4684268550386
 30
0.0
 41
1.0
 10
365.1756569779457
 20
219.4684268550386
 30
0.0
 41
1.0
 10
365.6062536749607
 20
220.5745998902381
 30
0.0
 41
1.0
 10
368.9892077363245
 20
214.6289891748556
 30
0.0
 41
1.0
 10
362.6340031077865
 20
212.5107197249898
 30
0.0
 41
1.0
 10
362.6950300646614
 20
212.190684852443
 30
0.0
 41
1.0
 10
356.328967393147
 20
215.3736765603061
 30
0.0
 41
1.0
 10
348.4321584293174
 20
213.4016340395759
 30
0.0
 41
1.0
 10
343.4573518629755
 20
211.7835478687202
 30
0.0
 41
1.0
 10
335.1045050941349
 20
213.0153413281363
 30
0.0
 41
1.0
 10
339.8546215010737
 20
209.0915457684418
 30
0.0
 41
1.0
 10
340.8091782135436
 20
208.3130954172396
 30
0.0
 41
1.0
 10
342.5516959717937
 20
202.8376300371586
 30
0.0
 41
1.0
 10
333.51122598497
 20
202.8376300371586
 30
0.0
 41
1.0
 10
333.8726323789306
 20
204.9379084231145
 30
0.0
 41
1.0
 10
329.6792086279524
 20
211.9904054757898
 30
0.0
 41
1.0
 10
329.0396144175877
 20
213.066699078857
 30
0.0
 41
1.0
 10
328.5261954219567
 20
213.8842225336168
 30
0.0
 41
1.0
 10
328.5261954219567
 20
213.8842225336168
 30
0.0
 41
1.0
 10
335.2401910034465
 20
192.6633267450714
 30
0.0
 41
1.0
 10
317.1814426504809
 20
180.8855996029361
 30
0.0
 41
1.0
 10
306.2734685274958
 20
192.0083569118057
 30
0.0
 41
1.0
 10
301.1519594972895
 20
197.230679304538
 30
0.0
 41
1.0
 10
301.8259783144881
 20
204.6553986533014
 30
0.0
 41
1.0
 10
307.5721977765061
 20
207.6502413649008
 30
0.0
 41
1.0
 10
311.4345701458073
 20
209.578647210671
 30
0.0
 41
1.0
 10
313.9789856755695
 20
209.0924869515931
 30
0.0
 41
1.0
 10
316.1716242842824
 20
207.0253908968183
 30
0.0
 41
1.0
 10
317.1016532536822
 20
206.1486120214338
 30
0.0
 41
0.8835494677310759
 10
317.3741474506922
 20
204.8998358233748
 30
0.0
 41
0.8835494677310759
 10
316.8939105924668
 20
203.7153242614875
 30
0.0
 41
1.0
 10
315.2244777761249
 20
199.5976426656638
 30
0.0
 41
1.0
 10
312.0667402248946
 20
199.4620486370223
 30
0.0
 41
1.0
 10
307.4258476871863
 20
200.7275239334723
 30
0.0
 41
1.0
 10
315.3694968218122
 20
185.8775254195184
 30
0.0
 41
1.0
 10
323.9337187776468
 20
196.7828841014945
 30
0.0
 41
1.0
 10
323.9337187776468
 20
207.6567782355755
 30
0.0
 41
1.0
 10
323.9337187776468
 20
213.0476776897012
 30
0.0
 41
1.0
 10
323.5450483925628
 20
215.6961683622856
 30
0.0
 41
1.0
 10
322.1686131197742
 20
220.7972293991494
 30
0.0
 41
1.0
 10
322.0536658083617
 20
221.2235198650083
 30
0.0
 41
1.0
 10
321.9387184969492
 20
221.6498103308672
 30
0.0
 41
1.0
 10
321.8237711855367
 20
222.0761007967261
 30
0.0
 41
1.0
 10
311.4652774417906
 20
222.0761007967261
 30
0.0
 41
1.0
 10
306.0910217031762
 20
222.9344409823828
 30
0.0
 41
1.0
 10
297.496207013116
 20
228.7786042889342
 30
0.0
 41
1.0
 10
291.4135630400233
 20
224.8913456475766
 30
0.0
 41
1.0
 10
283.9823025757826
 20
220.2710502216263
 30
0.0
 41
1.0
 10
280.3892414200351
 20
213.8117827432484
 30
0.0
 41
1.0
 10
278.190051810469
 20
209.8589795650913
 30
0.0
 41
1.0
 10
277.7676184596333
 20
205.5579264538063
 30
0.0
 41
1.0
 10
283.6655171905499
 20
204.5737280765686
 30
0.0
 41
1.0
 10
286.448108656683
 20
204.1095269253783
 30
0.0
 41
1.0
 10
289.0615682709054
 20
205.8904044850925
 30
0.0
 41
1.0
 10
289.0615682709054
 20
210.6595422811872
 30
0.0
 41
1.0
 10
286.1862475326377
 20
211.7650812700814
 30
0.0
 41
1.0
 10
285.915113481379
 20
211.7642094564118
 30
0.0
 41
1.0
 10
284.3564691516353
 20
214.6216976423458
 30
0.0
 41
1.0
 10
292.3312658110038
 20
216.5465829691273
 30
0.0
 41
1.0
 10
297.2190495219579
 20
213.5756004945635
 30
0.0
 41
1.0
 10
295.7875314764057
 20
207.8854311843861
 30
0.0
 41
1.0
 10
291.8764168428151
 20
192.3366343863201
 30
0.0
 41
1.0
 10
271.2122137102302
 20
195.3025444904423
 30
0.0
 41
1.0
 10
272.3026940993761
 20
209.6656746977952
 30
0.0
 41
1.0
 10
272.6741395598357
 20
211.2373433953914
 30
0.0
 41
1.0
 10
273.0455850202953
 20
212.8090120929877
 30
0.0
 41
1.0
 10
273.4170304807549
 20
214.3806807905839
 30
0.0
 41
1.0
 10
268.6533613340426
 20
212.2966498411986
 30
0.0
 41
1.0
 10
265.6818240689617
 20
210.7806451254792
 30
0.0
 41
1.0
 10
260.7568693933657
 20
212.8912267638945
 30
0.0
 41
1.0
 10
264.1844444634575
 20
218.9846495241754
 30
0.0
 41
1.0
 10
268.9188682243428
 20
220.5280767425945
 30
0.0
 41
1.0
 10
275.4029427644114
 20
219.7179240761325
 30
0.0
 41
1.0
 10
281.4519030275406
 20
223.5199827452297
 30
0.0
 41
1.0
 10
286.2068540375565
 20
228.5218947911188
 30
0.0
 41
1.0
 10
292.2832368033854
 20
232.5021997277636
 30
0.0
 41
1.0
 10
290.5942167021361
 20
235.1850874124048
 30
0.0
 41
1.0
 10
289.0987392355473
 20
238.111686645605
 30
0.0
 41
1.0
 10
286.8552456404058
 20
240.3552594965348
 30
0.0
 41
1.0
 10
280.9612304431084
 20
240.3552594965348
 30
0.0
 41
1.0
 10
266.6053125124772
 20
239.4420743054789
 30
0.0
 41
1.0
 10
263.7456844202631
 20
232.3732505604447
 30
0.0
 41
1.0
 10
262.9876820624034
 20
230.4999607517484
 30
0.0
 41
1.0
 10
263.2367830045566
 20
229.8835884873115
 30
0.0
 41
1.0
 10
264.1639172143268
 20
228.312342487252
 30
0.0
 41
1.0
 10
266.6535792874601
 20
224.0979952082024
 30
0.0
 41
1.0
 10
264.7066608515731
 20
222.9817566879079
 30
0.0
 41
1.0
 10
261.2333551917191
 20
218.1197311081024
 30
0.0
 41
1.0
 10
258.7425042817637
 20
221.4014755279995
 30
0.0
 41
1.0
 10
258.2022968297382
 20
223.7663889905858
 30
0.0
 41
1.0
 10
258.7467840943237
 20
227.2813039392181
 30
0.0
 41
1.0
 10
259.4367849859513
 20
231.7363510468771
 30
0.0
 41
1.0
 10
256.2676630410142
 20
228.0559500125892
 30
0.0
 41
1.0
 10
254.7589498578046
 20
226.4577570445589
 30
0.0
 41
1.0
 10
252.3810384459618
 20
224.1318374297421
 30
0.0
 41
1.0
 10
243.26083713626
 20
210.5221127445363
 30
0.0
 41
1.0
 10
247.812497049673
 20
206.5656638001243
 30
0.0
 41
1.0
 10
252.5790986605469
 20
202.4223297072564
 30
0.0
 41
1.0
 10
255.1351770841492
 20
209.328996109737
 30
0.0
 41
1.0
 10
256.0019976391379
 20
212.5789589585863
 30
0.0
 41
1.0
 10
253.42174620015
 20
212.7568882029815
 30
0.0
 41
1.0
 10
251.9150936674322
 20
212.3319979227132
 30
0.0
 41
1.0
 10
249.625631715164
 20
213.6930575726007
 30
0.0
 41
1.0
 10
250.6466840338912
 20
217.2279449798466
 30
0.0
 41
1.0
 10
255.7099400598078
 20
218.0556924312778
 30
0.0
 41
1.0
 10
257.259786997067
 20
216.5136918170453
 30
0.0
 41
1.0
 10
260.3506042233125
 20
213.4388050042178
 30
0.0
 41
1.0
 10
259.9360171955036
 20
210.4931843818618
 30
0.0
 41
1.0
 10
258.9838381566782
 20
207.9038185272367
 30
0.0
 41
1.0
 10
255.0479164613969
 20
197.2014339187109
 30
0.0
 41
1.0
 10
243.9215133862723
 20
198.2230410279551
 30
0.0
 41
1.0
 10
241.7632197633913
 20
207.9355208424965
 30
0.0
 41
1.0
 10
238.7405625149541
 20
204.9131806172119
 30
0.0
 41
1.0
 10
238.2108168269643
 20
204.62120229367
 30
0.0
 41
1.0
 10
234.272200434886
 20
203.787669169704
 30
0.0
 41
1.0
 10
234.272200434886
 20
210.9355901913111
 30
0.0
 41
1.0
 10
237.2184551035472
 20
208.5835954221931
 30
0.0
 41
1.0
 10
240.9583772347353
 20
213.4453832346342
 30
0.0
 41
1.0
 10
248.9835805753667
 20
223.8781396518763
 30
0.0
 41
1.0
 10
238.7674302271368
 20
217.4401919805104
 30
0.0
 41
1.0
 10
235.3865368162648
 20
214.6835964128904
 30
0.0
 41
1.0
 10
227.2696345287447
 20
208.0654210792731
 30
0.0
 41
1.0
 10
229.7906818939851
 20
203.3628581452239
 30
0.0
 41
1.0
 10
234.5441270440261
 20
194.4264510082402
 30
0.0
 41
1.0
 10
243.9406932870045
 20
179.8521833812577
 30
0.0
 41
1.0
 10
252.2699218309766
 20
167.3338901546556
 30
0.0
 41
1.0
 10
251.5527732522269
 20
150.3527945969061
 30
0.0
 41
1.0
 10
237.3190421882195
 20
150.352794596906
 30
0.0
 41
1.0
 10
223.085311124212
 20
150.352794596906
 30
0.0
 41
1.0
 10
208.8515800602045
 20
150.352794596906
 30
0.0
 41
1.0
 10
208.8515800602044
 20
161.0266431737814
 30
0.0
 41
1.0
 10
208.8515800602044
 20
171.7004917506568
 30
0.0
 41
1.0
 10
208.8515800602044
 20
182.3743403275321
 30
0.0
 41
1.0
 10
207.5182467268712
 20
182.3743403275322
 30
0.0
 41
1.0
 10
206.1849133935378
 20
182.3743403275322
 30
0.0
 41
1.0
 10
204.8515800602045
 20
182.3743403275322
 30
0.0
 41
1.0
 10
204.8515800602044
 20
171.7004917506568
 30
0.0
 41
1.0
 10
204.8515800602044
 20
161.0266431737814
 30
0.0
 41
1.0
 10
204.8515800602044
 20
150.352794596906
 30
0.0
 41
1.0
 10
190.0826832968306
 20
150.3527945969061
 30
0.0
 41
1.0
 10
175.3137865334567
 20
150.3527945969061
 30
0.0
 41
1.0
 10
160.5448897700829
 20
150.3527945969061
 30
0.0
 41
1.0
 10
169.8626065217309
 20
164.6404614501905
 30
0.0
 41
1.0
 10
195.2823154548488
 20
193.7351820240022
 30
0.0
 41
1.0
 10
182.4775125540871
 20
212.4235383580256
 30
0.0
 41
1.0
 10
172.5240951435718
 20
226.951520604729
 30
0.0
 41
1.0
 10
147.917233573713
 20
234.9622201361291
 30
0.0
 41
1.0
 10
139.0754578477796
 20
220.7824085667655
 30
0.0
 41
1.0
 10
133.6870153230865
 20
212.1405159385446
 30
0.0
 41
1.0
 10
138.9948547112318
 20
197.6212518285376
 30
0.0
 41
1.0
 10
147.2622637404474
 20
196.2145408446761
 30
0.0
 41
1.0
 10
155.2131251517947
 20
194.8618823083324
 30
0.0
 41
1.0
 10
164.0516513904141
 20
199.5014368908029
 30
0.0
 41
1.0
 10
156.9927346188987
 20
206.5614632433524
 30
0.0
 41
1.0
 10
156.6617624475872
 20
206.8924618332598
 30
0.0
 41
1.0
 10
156.3307902762758
 20
207.2234604231673
 30
0.0
 41
1.0
 10
155.9998181049644
 20
207.5544590130747
 30
0.0
 41
1.0
 10
155.9998181049645
 20
203.2884369601517
 30
0.0
 41
1.0
 10
153.1882190203689
 20
203.3231509953611
 30
0.0
 41
1.0
 10
149.7331421917893
 20
200.9842334312878
 30
0.0
 41
1.0
 10
147.8169750017042
 20
208.8113765573341
 30
0.0
 41
1.0
 10
151.1630751215785
 20
215.7098003578473
 30
0.0
 41
1.0
 10
158.975952205758
 20
210.9337673081836
 30
0.0
 41
1.0
 10
168.2967499152657
 20
205.2359894423439
 30
0.0
 41
1.0
 10
165.9118639940658
 20
196.0776660985423
 30
0.0
 41
1.0
 10
157.7009643418006
 20
191.9204622427482
 30
0.0
 41
1.0
 10
144.9987976866922
 20
185.4883002439173
 30
0.0
 41
1.0
 10
136.7089592694303
 20
195.9064735961398
 30
0.0
 41
1.0
 10
131.9206415726036
 20
205.0716921935105
 30
0.0
 41
1.0
 10
130.026507491624
 20
196.2326111643741
 30
0.0
 41
1.0
 10
138.7921976609341
 20
194.8168650206635
 30
0.0
 41
1.0
 10
130.6172008807005
 20
186.643453356193
 30
0.0
 41
1.0
 10
126.9936262465156
 20
190.5530621298087
 30
0.0
 41
1.0
 10
127.5763940567772
 20
193.383048557255
 30
0.0
 41
1.0
 10
127.5763940567772
 20
198.2451533928487
 30
0.0
 41
1.0
 10
121.9997982910177
 20
192.6685576270892
 30
0.0
 41
1.0
 10
118.305765261168
 20
191.5140385611187
 30
0.0
 41
1.0
 10
110.323756325078
 20
190.4256188224647
 30
0.0
 41
1.0
 10
110.323756325078
 20
182.9449027464188
 30
0.0
 41
1.0
 10
107.051126320818
 20
180.1415462637907
 30
0.0
 41
1.0
 10
99.95995244352585
 20
177.827911296137
 30
0.0
 41
1.0
 10
100.6071552095529
 20
183.8641906331623
 30
0.0
 41
1.0
 10
101.8112091431166
 20
185.5127902824554
 30
0.0
 41
1.0
 10
105.9798258324042
 20
189.680931437014
 30
0.0
 41
1.0
 10
97.55335043637304
 20
190.6720250678208
 30
0.0
 41
1.0
 10
93.20466459641034
 20
195.3399532224488
 30
0.0
 41
1.0
 10
96.42237033948285
 20
203.7063527310628
 30
0.0
 41
1.0
 10
86.74682372221903
 20
208.4132747334603
 30
0.0
 41
1.0
 10
82.39686978964591
 20
210.8857383005652
 30
0.0
 41
1.0
 10
82.39686978964591
 20
221.9519862324844
 30
0.0
 41
1.0
 10
78.91999761932526
 20
219.7997160495026
 30
0.0
 41
1.0
 10
78.33984525007254
 20
217.3333551780852
 30
0.0
 41
1.0
 10
74.20491227074844
 20
218.4766991779267
 30
0.0
 41
1.0
 10
74.20491227074844
 20
222.1199292475727
 30
0.0
 41
1.0
 10
75.83456978667388
 20
222.4937788002728
 30
0.0
 41
1.0
 10
78.64101724503981
 20
223.8865407654201
 30
0.0
 41
1.0
 10
79.83167695040641
 20
224.4769963871322
 30
0.0
 41
1.0
 10
79.92836901194852
 20
224.6343191266086
 30
0.0
 41
1.0
 10
79.92258333941363
 20
225.5372803209933
 30
0.0
 41
1.0
 10
79.92258333941363
 20
225.5409260872481
 30
0.0
 41
1.0
 10
71.65549133335062
 20
230.0560490823243
 30
0.0
 41
1.0
 10
72.56415894448209
 20
236.0050677965972
 30
0.0
 41
1.0
 10
76.04079334743829
 20
236.0382759718318
 30
0.0
 41
1.0
 10
78.23594091180884
 20
235.8114459061486
 30
0.0
 41
1.0
 10
80.63683650221491
 20
233.8955957392161
 30
0.0
 41
1.0
 10
82.29241066086517
 20
232.5746395181321
 30
0.0
 41
1.0
 10
82.66713202723497
 20
233.6413431708332
 30
0.0
 41
1.0
 10
84.2263311474957
 20
235.2002252679413
 30
0.0
 41
1.0
 10
87.8633000098779
 20
239.3173256949319
 30
0.0
 41
1.0
 10
88.77648520093389
 20
247.1392379389604
 30
0.0
 41
1.0
 10
80.40493406609014
 20
245.8980130407546
 30
0.0
 41
1.0
 10
77.74732897786854
 20
245.5039532620763
 30
0.0
 41
1.0
 10
76.44483935542332
 20
244.7595036439902
 30
0.0
 41
1.0
 10
76.84405076033124
 20
243.1577441654933
 30
0.0
 41
1.0
 10
78.04453818342833
 20
238.3409736407209
 30
0.0
 41
1.0
 10
81.0115578685847
 20
243.1260418502335
 30
0.0
 41
1.0
 10
84.13185824802175
 20
243.2374754883714
 30
0.0
 41
1.0
 10
83.7772678518419
 20
238.3077654654863
 30
0.0
 41
1.0
 10
82.26245197294474
 20
237.2370990233778
 30
0.0
 41
1.0
 10
78.51167179878018
 20
237.3688221432819
 30
0.0
 41
1.0
 10
75.61709190399227
 20
237.4705865752655
 30
0.0
 41
1.0
 10
73.98600778388014
 20
239.069968380118
 30
0.0
 41
1.0
 10
73.29775051959181
 20
241.4430451888836
 30
0.0
 41
1.0
 10
72.49084734044401
 20
244.2288861423307
 30
0.0
 41
1.0
 10
73.11894946152702
 20
246.4162666394626
 30
0.0
 41
1.0
 10
75.93601719550496
 20
247.7429292772935
 30
0.0
 41
1.0
 10
78.33318776386801
 20
248.8720864910562
 30
0.0
 41
1.0
 10
81.46553502310377
 20
248.519953024309
 30
0.0
 41
1.0
 10
84.55373680834037
 20
248.4146220818586
 30
0.0
 41
1.0
 10
87.34528417853423
 20
248.3191188571387
 30
0.0
 41
1.0
 10
85.33947869205231
 20
249.8486763126316
 30
0.0
 41
1.0
 10
83.94853961003249
 20
250.504042424838
 30
0.0
 41
1.0
 10
78.47458008992633
 20
253.0834220501562
 30
0.0
 41
1.0
 10
74.82556434774543
 20
252.8776740241207
 30
0.0
 41
1.0
 10
74.82556434774543
 20
260.9256237759509
 30
0.0
 41
1.0
 10
80.25204965075017
 20
260.4332868199676
 30
0.0
 41
1.0
 10
84.25113820918644
 20
257.6266015942373
 30
0.0
 41
1.0
 10
87.05148297186486
 20
253.2923403077177
 30
0.0
 41
1.0
 10
87.7487753960022
 20
255.7137631472544
 30
0.0
 41
1.0
 10
88.04836227520647
 20
257.7736210812542
 30
0.0
 41
1.0
 10
88.46453441877832
 20
259.8233342743708
 30
0.0
 41
1.0
 10
89.25091034879546
 20
263.6964061296496
 30
0.0
 41
1.0
 10
89.55287490164421
 20
262.3337613639991
 30
0.0
 41
1.0
 10
86.92768543077567
 20
264.959664136961
 30
0.0
 41
1.0
 10
82.4198539682092
 20
269.4674955995274
 30
0.0
 41
1.0
 10
78.79794370557537
 20
270.668220789989
 30
0.0
 41
1.0
 10
73.84675536410185
 20
270.0699981010383
 30
0.0
 41
1.0
 10
68.2279162632588
 20
269.3910930197516
 30
0.0
 41
1.0
 10
66.55062601865565
 20
268.6059059265566
 30
0.0
 41
1.0
 10
62.32660953345174
 20
272.8304772022776
 30
0.0
 41
1.0
 10
66.46059144331807
 20
277.4174851972052
 30
0.0
 41
1.0
 10
69.38180128292414
 20
276.2179488435659
 30
0.0
 41
1.0
 10
75.13299754997648
 20
276.2179488435659
 30
0.0
 41
1.0
 10
70.06997929142433
 20
284.4026148299537
 30
0.0
 41
1.0
 10
75.21962412642365
 20
292.3707540031176
 30
0.0
 41
1.0
 10
84.50689663754415
 20
293.9413659568718
 30
0.0
 41
1.0
 10
97.35980780171251
 20
296.1151937142302
 30
0.0
 41
1.0
 10
100.0124990310688
 20
279.2834834733918
 30
0.0
 41
1.0
 10
86.98926717816766
 20
279.0470634573425
 30
0.0
 41
1.0
 10
86.98926717816766
 20
282.7918201916078
 30
0.0
 41
1.0
 10
87.70050862101928
 20
281.6442756349943
 30
0.0
 41
1.0
 10
89.4499216328383
 20
284.199957779656
 30
0.0
 41
1.0
 10
92.84674545712817
 20
289.1627174661993
 30
0.0
 41
1.0
 10
82.50196296473186
 20
292.5999617424453
 30
0.0
 41
1.0
 10
79.5040335221973
 20
284.0538101063087
 30
0.0
 41
1.0
 10
77.13484024705093
 20
277.2985222591931
 30
0.0
 41
1.0
 10
84.02668581714767
 20
273.8340139918238
 30
0.0
 41
1.0
 10
89.27841210728326
 20
271.2742898019666
 30
0.0
 41
1.0
 10
92.33736850669279
 20
269.7830921479379
 30
0.0
 41
1.0
 10
94.86531112550213
 20
270.9043237828857
 30
0.0
 41
1.0
 10
97.37787812141055
 20
272.6007146724329
 30
0.0
 41
1.0
 10
113.2607380665258
 20
283.3251323900642
 30
0.0
 41
1.0
 10
130.5622766195131
 20
279.5383700880799
 30
0.0
 41
1.0
 10
140.611672789477
 20
262.9085243396577
 30
0.0
 41
1.0
 10
140.4593695832502
 20
266.676687950023
 30
0.0
 41
1.0
 10
140.3070663770233
 20
270.4448515603882
 30
0.0
 41
1.0
 10
140.1547631707964
 20
274.2130151707536
 30
0.0
 41
1.0
 10
139.1617674010741
 20
283.2057731731114
 30
0.0
 41
1.0
 10
121.6693809102234
 20
302.755402156953
 30
0.0
 41
1.0
 10
112.5243725388308
 20
301.3233293208837
 30
0.0
 41
1.0
 10
107.7734635740105
 20
300.5792759817383
 30
0.0
 41
1.0
 10
102.076319754476
 20
296.9967558458146
 30
0.0
 41
1.0
 10
105.7977752870253
 20
293.0786667028669
 30
0.0
 41
1.0
 10
108.5981993054919
 20
290.1305891510783
 30
0.0
 41
1.0
 10
119.0073374978654
 20
290.9643600424086
 30
0.0
 41
1.0
 10
113.7991226354238
 20
292.9484494429376
 30
0.0
 41
1.0
 10
108.4966726408727
 20
295.646792006268
 30
0.0
 41
1.0
 10
108.5163280763337
 20
296.2030883832877
 30
0.0
 41
1.0
 10
111.0929337490667
 20
296.8725620257848
 30
0.0
 41
1.0
 10
119.130263225285
 20
298.9614275782471
 30
0.0
 41
1.0
 10
123.2234284042544
 20
292.0753676806853
 30
0.0
 41
1.0
 10
117.7401167011466
 20
288.6405010780837
 30
0.0
 41
1.0
 10
110.7919202656757
 20
284.2881694718661
 30
0.0
 41
1.0
 10
102.0409716729614
 20
286.2910424941865
 30
0.0
 41
1.0
 10
99.83583787928409
 20
293.5068857262375
 30
0.0
 41
1.0
 10
99.48412711007366
 20
294.5619651966766
 30
0.0
 41
1.0
 10
99.13241634086322
 20
295.6170446671158
 30
0.0
 41
1.0
 10
98.78070557165278
 20
296.6721241375551
 30
0.0
 41
1.0
 10
96.39883137040254
 20
295.8237701812054
 30
0.0
 41
1.0
 10
95.2158594764864
 20
295.7002104074806
 30
0.0
 41
1.0
 10
92.76099069435067
 20
295.7410271383775
 30
0.0
 41
1.0
 10
92.10784374421248
 20
297.970650970593
 30
0.0
 41
1.0
 10
95.25517034740843
 20
299.8149331608267
 30
0.0
 41
1.0
 10
96.76784632002556
 20
301.8343706428703
 30
0.0
 41
1.0
 10
100.5817141015569
 20
306.9260002409444
 30
0.0
 41
1.0
 10
99.03796985998532
 20
312.0070095634064
 30
0.0
 41
1.0
 10
95.86726279928532
 20
317.1327191503846
 30
0.0
 41
1.0
 10
88.96971081244183
 20
328.2832952408946
 30
0.0
 41
1.0
 10
75.68124945599947
 20
316.104192258507
 30
0.0
 41
1.0
 10
80.31299157034437
 20
310.006368125538
 30
0.0
 41
1.0
 10
82.46079183028228
 20
307.1966620228082
 30
0.0
 41
1.0
 10
89.30010642527248
 20
307.0411538055016
 30
0.0
 41
1.0
 10
88.97731587899539
 20
310.5494466246248
 30
0.0
 41
1.0
 10
88.918788672947
 20
311.185557499219
 30
0.0
 41
0.9301446051593661
 10
88.58292361753418
 20
311.7289331916982
 30
0.0
 41
0.9301446051593661
 10
88.04010667093411
 20
312.0657005314277
 30
0.0
 41
1.0
 10
87.497289724334
 20
312.4024678711572
 30
0.0
 41
0.9301446051593661
 10
86.86127696293944
 20
312.4620518116783
 30
0.0
 41
0.9301446051593661
 10
86.26535515446311
 20
312.2319655739172
 30
0.0
 41
1.0
 10
85.26023117348787
 20
311.8438858091284
 30
0.0
 41
1.0
 10
84.14821736322471
 20
311.7187299557355
 30
0.0
 41
1.0
 10
84.13455294481883
 20
313.0558806637739
 30
0.0
 41
1.0
 10
84.76056975944999
 20
320.0606721682645
 30
0.0
 41
1.0
 10
96.97343304669676
 20
316.8407081969925
 30
0.0
 41
1.0
 10
92.86576684628402
 20
308.1260913851007
 30
0.0
 41
1.0
 10
90.34384766737401
 20
302.9360260981452
 30
0.0
 41
1.0
 10
83.09717393373293
 20
302.6403227525602
 30
0.0
 41
1.0
 10
78.88678944409071
 20
305.7533315994876
 30
0.0
 41
1.0
 10
76.18931869443004
 20
307.7473279735353
 30
0.0
 41
1.0
 10
74.85813847667478
 20
310.6734516720066
 30
0.0
 41
1.0
 10
74.89618125498643
 20
314.2167401927963
 30
0.0
 41
1.0
 10
75.0154612161511
 20
325.398939342778
 30
0.0
 41
1.0
 10
89.02051377264552
 20
329.1998091750529
 30
0.0
 41
1.0
 10
94.80888100433986
 20
324.2265877244739
 30
0.0
 41
1.0
 10
96.73733284158808
 20
332.584586119544
 30
0.0
 41
1.0
 10
108.5263143056405
 20
340.5379044603241
 30
0.0
 41
1.0
 10
116.4041811361024
 20
331.2392191157101
 30
0.0
 41
1.0
 10
117.9120925846078
 20
329.4595177354118
 30
0.0
 41
1.0
 10
119.5031388606772
 20
326.5235477752078
 30
0.0
 41
1.0
 10
116.9898434435806
 20
323.5038652798743
 30
0.0
 41
1.0
 10
116.3797956373697
 20
322.7709030227515
 30
0.0
 41
0.859251854445713
 10
115.4481004368492
 20
322.5675903336334
 30
0.0
 41
0.859251854445713
 10
114.5881609571045
 20
322.9797748644028
 30
0.0
 41
1.0
 10
110.60723407013
 20
324.8879050521487
 30
0.0
 41
1.0
 10
110.1457747994718
 20
326.3255030427509
 30
0.0
 41
1.0
 10
110.0767952892048
 20
330.2414679986989
 30
0.0
 41
1.0
 10
109.1930932513404
 20
331.8368870141437
 30
0.0
 41
1.0
 10
103.8448324999667
 20
329.4251823356134
 30
0.0
 41
1.0
 10
102.0642008239647
 20
326.2910214326549
 30
0.0
 41
1.0
 10
100.9084857160964
 20
324.2899923549933
 30
0.0
 41
1.0
 10
101.5245409573807
 20
322.7676471762219
 30
0.0
 41
1.0
 10
102.1702378634329
 20
321.5482176197572
 30
0.0
 41
1.0
 10
104.7296450301375
 20
316.7169432857535
 30
0.0
 41
1.0
 10
114.4746989736082
 20
317.2025434997441
 30
0.0
 41
1.0
 10
118.4824264129528
 20
319.6662096743644
 30
0.0
 41
1.0
 10
121.6745325364531
 20
321.6285829889405
 30
0.0
 41
1.0
 10
123.4001688118273
 20
325.20357382499
 30
0.0
 41
1.0
 10
123.1268155985004
 20
329.9463986994191
 30
0.0
 41
1.0
 10
122.7864912441875
 20
335.8812306276133
 30
0.0
 41
1.0
 10
114.0660561299106
 20
341.9579304165947
 30
0.0
 41
1.0
 10
109.9520466786579
 20
346.0719398678474
 30
0.0
 41
1.0
 10
103.9755262058971
 20
342.7391547203821
 30
0.0
 41
1.0
 10
97.669063887071
 20
341.3608965644662
 30
0.0
 41
1.0
 10
91.58166456668942
 20
345.2028208950025
 30
0.0
 41
1.0
 10
96.07023687273562
 20
349.6907591547434
 30
0.0
 41
1.0
 10
99.64467291826803
 20
350.1676412320376
 30
0.0
 41
1.0
 10
105.855473500798
 20
350.1676412320376
 30
0.0
 41
1.0
 10
101.7727700858643
 20
367.0087036558776
 30
0.0
 41
1.0
 10
106.2809978273715
 20
373.4568753239147
 30
0.0
 41
1.0
 10
120.1853955329163
 20
381.7290397004193
 30
0.0
 41
1.0
 10
116.7605151596216
 20
385.1539993295022
 30
0.0
 41
1.0
 10
116.1471546151343
 20
388.2032072669693
 30
0.0
 41
1.0
 10
118.7020442019144
 20
392.3061209078812
 30
0.0
 41
1.0
 10
123.3695760776017
 20
388.9799139908323
 30
0.0
 41
1.0
 10
126.0501653443865
 20
384.1565652356436
 30
0.0
 41
1.0
 10
129.5339327682762
 20
378.4382601206731
 30
0.0
 41
1.0
 10
132.8866903743551
 20
385.0972521851872
 30
0.0
 41
1.0
 10
136.9856412258594
 20
385.3937480886537
 30
0.0
 41
1.0
 10
141.7879871971886
 20
390.1960940599829
 30
0.0
 41
1.0
 10
140.442303170202
 20
393.9172325693796
 30
0.0
 41
1.0
 10
140.7433959093811
 20
397.4581434165249
 30
0.0
 41
1.0
 10
139.0467672524696
 20
399.4576084399549
 30
0.0
 41
1.0
 10
135.5405704405337
 20
403.5898467224819
 30
0.0
 41
1.0
 10
130.6927316468068
 20
402.9695909244257
 30
0.0
 41
1.0
 10
129.3665004883778
 20
398.7842220468634
 30
0.0
 41
1.0
 10
128.8535218270147
 20
396.8707787705507
 30
0.0
 41
1.0
 10
131.3766959608106
 20
398.2474688104952
 30
0.0
 41
1.0
 10
133.6477442060773
 20
397.9987351191231
 30
0.0
 41
1.0
 10
134.6022162230146
 20
397.9322571802575
 30
0.0
 41
1.0
 10
135.6754422038763
 20
397.6247358247766
 30
0.0
 41
1.0
 10
136.4818812286622
 20
397.097510229541
 30
0.0
 41
1.0
 10
136.9141502515078
 20
396.8149057351315
 30
0.0
 41
0.9460951486344697
 10
137.2001422927092
 20
396.3848704333924
 30
0.0
 41
0.9460951486344697
 10
137.2936082768484
 20
395.8769472913904
 30
0.0
 41
1.0
 10
137.3870742609875
 20
395.3690241493884
 30
0.0
 41
0.9460951486344697
 10
137.2728993781162
 20
394.8653517315475
 30
0.0
 41
0.9460951486344697
 10
136.9695473685069
 20
394.4473811983297
 30
0.0
 41
1.0
 10
132.7087394993115
 20
388.5766696796561
 30
0.0
 41
1.0
 10
127.3849194189704
 20
391.0873792371989
 30
0.0
 41
1.0
 10
124.6923551818131
 20
393.8714227238294
 30
0.0
 41
1.0
 10
122.1224069952846
 20
396.5276804636524
 30
0.0
 41
1.0
 10
122.8390378317304
 20
399.6651000933297
 30
0.0
 41
1.0
 10
124.6274446913189
 20
402.6920371543269
 30
0.0
 41
1.0
 10
127.1690193056899
 20
406.9926939866711
 30
0.0
 41
1.0
 10
132.1325715501147
 20
408.1599732345337
 30
0.0
 41
1.0
 10
136.7060268052688
 20
407.0310537881353
 30
0.0
 41
1.0
 10
142.4110169478301
 20
405.6231539674516
 30
0.0
 41
1.0
 10
143.9919321540437
 20
401.8424943611548
 30
0.0
 41
1.0
 10
145.9902083406515
 20
396.8194210198299
 30
0.0
 41
1.0
 10
161.2621686969034
 20
414.372481262648
 30
0.0
 41
1.0
 10
175.8519527640846
 20
396.9340156261028
 30
0.0
 41
1.0
 10
175.5439812843136
 20
384.5182522226776
 30
0.0
 41
1.0
 10
177.6539508385991
 20
399.5607460127471
 30
0.0
 41
1.0
 10
179.4808044705647
 20
408.6266210000926
 30
0.0
 41
1.0
 10
186.1128963007062
 20
421.3456001973526
 30
0.0
 41
1.0
 10
188.319852977511
 20
425.5780177961004
 30
0.0
 41
1.0
 10
185.7450701879054
 20
428.6843691568233
 30
0.0
 41
1.0
 10
180.2657212742051
 20
422.8646166330218
 30
0.0
 41
1.0
 10
173.1821559525753
 20
415.3403891292819
 30
0.0
 41
1.0
 10
167.9983518728836
 20
412.223813771888
 30
0.0
 41
1.0
 10
154.2621349497916
 20
412.723997050898
 30
0.0
 41
1.0
 10
150.1161061601266
 20
406.5061427032228
 30
0.0
 41
1.0
 10
144.3848030958997
 20
406.4077070143413
 30
0.0
 41
1.0
 10
138.0024929878147
 20
408.1315996623763
 30
0.0
 41
1.0
 10
138.0024929878147
 20
413.6604834436698
 30
0.0
 41
1.0
 10
146.0116074034518
 20
414.8732555139302
 30
0.0
 41
1.0
 10
150.7988155192444
 20
416.7350532333448
 30
0.0
 41
1.0
 10
143.8306466251599
 20
419.4442538396516
 30
0.0
 41
1.0
 10
140.1650664232559
 20
436.0606261040883
 30
0.0
 41
1.0
 10
151.4883408761431
 20
441.754678947885
 30
0.0
 41
1.0
 10
154.0371277672358
 20
443.0366413211997
 30
0.0
 41
1.0
 10
153.2692184358574
 20
443.8103363251129
 30
0.0
 41
1.0
 10
153.2692184358574
 20
446.7328142573293
 30
0.0
 41
1.0
 10
153.2643838327804
 20
448.3587203326158
 30
0.0
 41
1.0
 10
153.2595492297033
 20
449.9846264079021
 30
0.0
 41
1.0
 10
153.2547146266261
 20
451.6105324831885
 30
0.0
 41
1.0
 10
147.7870955695719
 20
450.9546115804651
 30
0.0
 41
1.0
 10
146.5353296515422
 20
450.1606270947856
 30
0.0
 41
1.0
 10
143.1106870456119
 20
454.76190113158
 30
0.0
 41
1.0
 10
146.6295647836517
 20
457.0482721081105
 30
0.0
 41
1.0
 10
150.3440458068439
 20
458.8445252907257
 30
0.0
 41
1.0
 10
154.2642748560716
 20
457.6480006570361
 30
0.0
 41
1.0
 10
157.055029668384
 20
456.7967142365247
 30
0.0
 41
1.0
 10
157.8380768552988
 20
456.5134540496791
 30
0.0
 41
1.0
 10
159.3033578666027
 20
457.6733625092438
 30
0.0
 41
1.0
 10
162.1882685552364
 20
459.9571180447653
 30
0.0
 41
1.0
 10
164.4466622385501
 20
463.0893860482128
 30
0.0
 41
1.0
 10
167.3487714332122
 20
465.5382313904492
 30
0.0
 41
1.0
 10
163.6762167219509
 20
469.8193120431206
 30
0.0
 41
1.0
 10
163.6904827638178
 20
472.4183471038998
 30
0.0
 41
1.0
 10
165.0605775735544
 20
477.7626441545939
 30
0.0
 41
1.0
 10
170.7278419609566
 20
474.699249431048
 30
0.0
 41
1.0
 10
171.390658117249
 20
473.7769498243548
 30
0.0
 41
1.0
 10
171.390658117249
 20
467.3366244793444
 30
0.0
 41
1.0
 10
172.5893754944108
 20
467.0477371315404
 30
0.0
 41
1.0
 10
173.7880928715726
 20
466.7588497837363
 30
0.0
 41
1.0
 10
174.9868102487343
 20
466.4699624359322
 30
0.0
 41
1.0
 10
179.7676779014751
 20
471.3374566651201
 30
0.0
 41
1.0
 10
184.755720184438
 20
475.2890710064549
 30
0.0
 41
1.0
 10
191.1256663895718
 20
477.8867587188356
 30
0.0
 41
1.0
 10
191.2084094323997
 20
482.4792089445494
 30
0.0
 41
1.0
 10
191.2911524752275
 20
487.0716591702633
 30
0.0
 41
1.0
 10
191.3738955180553
 20
491.6641093959771
 30
0.0
 41
1.0
 10
186.4952262227384
 20
491.1132024125515
 30
0.0
 41
1.0
 10
183.1206732749184
 20
490.9109416411945
 30
0.0
 41
1.0
 10
178.3413907379407
 20
491.6641093959771
 30
0.0
 41
1.0
 10
178.4162082019536
 20
489.2997507239079
 30
0.0
 41
1.0
 10
176.7081667115485
 20
485.3457587089287
 30
0.0
 41
1.0
 10
174.1659580508723
 20
483.8152501839779
 30
0.0
 41
1.0
 10
170.5423041608992
 20
481.6336553593808
 30
0.0
 41
1.0
 10
170.1117074638841
 20
480.8197776708759
 30
0.0
 41
1.0
 10
170.5770974518967
 20
483.4329202619457
 30
0.0
 41
1.0
 10
170.8543341988429
 20
484.9887906391042
 30
0.0
 41
1.0
 10
170.4568664212742
 20
487.0858987935341
 30
0.0
 41
1.0
 10
170.8181143036586
 20
488.5897773736666
 30
0.0
 41
1.0
 10
171.1831664638742
 20
490.1069709262083
 30
0.0
 41
1.0
 10
171.6389665015207
 20
491.6641093959771
 30
0.0
 41
1.0
 10
171.6389665015207
 20
491.6641093959771
 30
0.0
 41
1.0
 10
167.038643534184
 20
487.0637864286405
 30
0.0
 41
1.0
 10
164.1959761806339
 20
486.3269453662166
 30
0.0
 41
1.0
 10
157.7375012601374
 20
486.3269453662166
 30
0.0
 41
1.0
 10
160.3331283220263
 20
492.6540141899616
 30
0.0
 41
1.0
 10
163.1685041430667
 20
494.9642411587249
 30
0.0
 41
1.0
 10
169.0324021408673
 20
498.3665336323971
 30
0.0
 41
1.0
 10
161.7643293444259
 20
500.5469396201718
 30
0.0
 41
1.0
 10
162.0194537264784
 20
503.101829206952
 30
0.0
 41
1.0
 10
162.0194537264784
 20
510.32250704208
 30
0.0
 41
1.0
 10
168.5307922576705
 20
508.4567465332579
 30
0.0
 41
1.0
 10
170.9796375999069
 20
507.1258833386552
 30
0.0
 41
1.0
 10
172.8800328881502
 20
500.4765604802953
 30
0.0
 41
1.0
 10
173.2086273858172
 20
509.1343835219342
 30
0.0
 41
1.0
 10
174.7717892954854
 20
511.4232114278973
 30
0.0
 41
1.0
 10
180.947875842806
 20
514.8744839786457
 30
0.0
 41
1.0
 10
182.359104406592
 20
508.7152789142009
 30
0.0
 41
1.0
 10
182.3132153052535
 20
505.6748683692182
 30
0.0
 41
1.0
 10
180.5755321500807
 20
499.9801022233283
 30
0.0
 41
1.0
 10
183.5496056003823
 20
502.9538586504773
 30
0.0
 41
1.0
 10
185.7981715659655
 20
503.9519267906411
 30
0.0
 41
1.0
 10
190.0085560556077
 20
503.9519267906411
 30
0.0
 41
1.0
 10
188.0048904754058
 20
497.5571735238167
 30
0.0
 41
1.0
 10
182.6810414180544
 20
496.2426370215728
 30
0.0
 41
1.0
 10
183.3677928223679
 20
496.0704934497126
 30
0.0
 41
1.0
 10
188.810921840884
 20
494.7072938935449
 30
0.0
 41
1.0
 10
200.3268671147622
 20
500.4928871726541
 30
0.0
 41
1.0
 10
203.7236909390521
 20
503.8897109969439
 30
0.0
 41
1.0
 10
190.4960584085139
 20
503.8011822815811
 30
0.0
 41
1.0
 10
181.5684486640148
 20
510.1815109949625
 30
0.0
 41
1.0
 10
181.5684486640148
 20
524.0378796928889
 30
0.0
 41
1.0
 10
181.5684486640148
 20
524.9966105435346
 30
0.0
 41
1.0
 10
181.5684486640148
 20
525.9553413941802
 30
0.0
 41
1.0
 10
181.5684486640148
 20
526.914072244826
 30
0.0
 41
1.0
 10
174.9850666213951
 20
530.3073295586493
 30
0.0
 41
1.0
 10
173.9627462100575
 20
533.7883230299537
 30
0.0
 41
1.0
 10
173.3539032454948
 20
540.943218560918
 30
0.0
 41
1.0
 10
180.908644227672
 20
539.3176030901882
 30
0.0
 41
1.0
 10
180.689343461863
 20
537.1525727253142
 30
0.0
 41
1.0
 10
182.7229677299854
 20
530.2643729214724
 30
0.0
 41
1.0
 10
185.2587912792469
 20
537.5237151913682
 30
0.0
 41
1.0
 10
189.7015191323174
 20
542.1426756587691
 30
0.0
 41
1.0
 10
197.4558261890546
 20
544.6631682334923
 30
0.0
 41
1.0
  0
SPLINE
  5
2D8
330
1F
100
AcDbEntity
  8
templatesarea.com
100
AcDbSpline
210
0.0
220
0.0
230
1.0
 70
    13
 71
     3
 72
    14
 73
    10
 74
     0
 42
0.000000001
 43
0.0000000001
 40
0.0
 40
0.0
 40
0.0
 40
0.0
 40
1.0
 40
1.0
 40
1.0
 40
2.0
 40
2.0
 40
2.0
 40
3.0
 40
3.0
 40
3.0
 40
3.0
 10
95.86187340569116
 20
229.0567128495501
 30
0.0
 41
1.0
 10
92.33942915718467
 20
228.8081666979139
 30
0.0
 41
1.0
 10
91.44368023952152
 20
228.7275635613661
 30
0.0
 41
1.0
 10
88.35460664061526
 20
226.7930090284304
 30
0.0
 41
1.0
 10
88.71672633666934
 20
230.1949052231619
 30
0.0
 41
1.0
 10
89.77669324737778
 20
230.9888897088413
 30
0.0
 41
1.0
 10
91.95408751520288
 20
233.4951162416977
 30
0.0
 41
1.0
 10
93.25668281203231
 20
232.0156484443152
 30
0.0
 41
1.0
 10
94.55927810886173
 20
230.5361806469325
 30
0.0
 41
1.0
 10
95.86187340569116
 20
229.05671284955
 30
0.0
 41
1.0
  0
SPLINE
  5
2D9
330
1F
100
AcDbEntity
  8
templatesarea.com
100
AcDbSpline
210
0.0
220
0.0
230
1.0
 70
     9
 71
     3
 72
    23
 73
    19
 74
     0
 42
0.000000001
 43
0.0000000001
 40
0.0
 40
0.0
 40
0.0
 40
0.0
 40
1.0
 40
1.0
 40
1.0
 40
2.0
 40
2.0
 40
2.0
 40
3.0
 40
3.0
 40
3.0
 40
4.0
 40
4.0
 40
4.0
 40
5.0
 40
5.0
 40
5.0
 40
6.0
 40
6.0
 40
6.0
 40
6.0
 10
86.42845322122338
 20
220.2143030773115
 30
0.0
 10
92.37834374916596
 20
202.734280489412
 30
0.0
 10
107.9102590643562
 20
209.8036590249631
 30
0.0
 10
119.5346262564226
 20
216.2518306930002
 30
0.0
 10
123.6885806249025
 20
218.5563512450167
 30
0.0
 10
123.7728295277052
 20
219.2996120262807
 30
0.0
 10
125.4005849047151
 20
223.7905620059713
 30
0.0
 10
116.4327924756243
 20
221.3833259525133
 30
0.0
 10
107.5913337728435
 20
219.5315144624054
 30
0.0
 10
98.5339030473559
 20
226.918629452647
 30
0.0
 10
95.77215585350618
 20
225.112944831242
 30
0.0
 10
94.3648900791276
 20
224.7614454108
 30
0.0
 10
91.36339412612631
 20
223.8527777996685
 30
0.0
 10
93.75152953464034
 20
221.4645631353663
 30
0.0
 10
94.12633015679828
 20
221.3652556328153
 30
0.0
 10
94.12633015679828
 20
217.8560471009297
 30
0.0
 10
90.29011224300878
 20
217.8560471009297
 30
0.0
 10
89.71717215047766
 20
217.8578699840571
 30
0.0
 10
86.42845322122338
 20
220.2143030773115
 30
0.0
  0
SPLINE
  5
2DA
330
1F
100
AcDbEntity
  8
templatesarea.com
100
AcDbSpline
210
0.0
220
0.0
230
1.0
 70
     9
 71
     3
 72
    20
 73
    16
 74
     0
 42
0.000000001
 43
0.0000000001
 40
0.0
 40
0.0
 40
0.0
 40
0.0
 40
1.0
 40
1.0
 40
1.0
 40
2.0
 40
2.0
 40
2.0
 40
3.0
 40
3.0
 40
3.0
 40
4.0
 40
4.0
 40
4.0
 40
5.0
 40
5.0
 40
5.0
 40
5.0
 10
112.9215232932468
 20
199.4081528281512
 30
0.0
 10
112.9215232932468
 20
212.2555953429373
 30
0.0
 10
92.04919446098202
 20
200.7127823568765
 30
0.0
 10
104.8655687068135
 20
194.8196389732488
 30
0.0
 10
110.802144262347
 20
192.0899111178114
 30
0.0
 10
118.1058821634556
 20
196.8019054906504
 30
0.0
 10
123.4321088944514
 20
201.2554467383346
 30
0.0
 10
129.822661604504
 20
206.5989512311471
 30
0.0
 10
130.6905917405267
 20
209.5666049626086
 30
0.0
 10
130.6905917405267
 20
217.7950201440548
 30
0.0
 10
124.3151768860107
 20
211.4196845453268
 30
0.0
 10
120.1286483886014
 20
211.145776541483
 30
0.0
 10
113.4267789426985
 20
206.9969737992327
 30
0.0
 10
118.3197142798823
 20
204.7981012128192
 30
0.0
 10
116.6321207828198
 20
202.7581364816449
 30
0.0
 10
112.9215232932468
 20
199.4081528281512
 30
0.0
  0
SPLINE
  5
2DB
330
1F
100
AcDbEntity
  8
templatesarea.com
100
AcDbSpline
210
0.0
220
0.0
230
1.0
 70
    13
 71
     3
 72
    50
 73
    46
 74
     0
 42
0.000000001
 43
0.0000000001
 40
0.0
 40
0.0
 40
0.0
 40
0.0
 40
1.0
 40
1.0
 40
1.0
 40
2.0
 40
2.0
 40
2.0
 40
3.0
 40
3.0
 40
3.0
 40
4.0
 40
4.0
 40
4.0
 40
5.0
 40
5.0
 40
5.0
 40
6.0
 40
6.0
 40
6.0
 40
7.0
 40
7.0
 40
7.0
 40
8.0
 40
8.0
 40
8.0
 40
9.0
 40
9.0
 40
9.0
 40
10.0
 40
10.0
 40
10.0
 40
11.0
 40
11.0
 40
11.0
 40
12.0
 40
12.0
 40
12.0
 40
13.0
 40
13.0
 40
13.0
 40
14.0
 40
14.0
 40
14.0
 40
15.0
 40
15.0
 40
15.0
 40
15.0
 10
147.6617921685078
 20
265.2631345497846
 30
0.0
 41
1.0
 10
148.5282957003439
 20
266.9759578060747
 30
0.0
 41
1.0
 10
149.39479923218
 20
268.6887810623648
 30
0.0
 41
1.0
 10
150.261302764016
 20
270.4016043186549
 30
0.0
 41
1.0
 10
154.1697227008095
 20
262.4331481223383
 30
0.0
 41
1.0
 10
156.9991543377388
 20
259.5560837567314
 30
0.0
 41
1.0
 10
164.0098835900594
 20
254.4287890539902
 30
0.0
 41
1.0
 10
157.6088691159711
 20
248.1736052300966
 30
0.0
 41
1.0
 10
152.2795514092374
 20
237.463374298544
 30
0.0
 41
1.0
 10
164.9745057876243
 20
234.9715723191307
 30
0.0
 41
1.0
 10
168.1379213158145
 20
234.3509994979218
 30
0.0
 41
1.0
 10
170.5710740119973
 20
236.7898586108514
 30
0.0
 41
1.0
 10
170.9694136032356
 20
239.2106474040829
 30
0.0
 41
1.0
 10
171.2997517282418
 20
241.2198608894553
 30
0.0
 41
1.0
 10
170.284722849414
 20
242.706303196195
 30
0.0
 41
1.0
 10
169.0324021408673
 20
243.0526509904073
 30
0.0
 41
1.0
 10
166.7405625149546
 20
243.6868558071779
 30
0.0
 41
1.0
 10
165.5993584213932
 20
243.4618486246221
 30
0.0
 41
1.0
 10
164.8123484450708
 20
242.0594174533206
 30
0.0
 41
1.0
 10
164.3363910186383
 20
241.2114069387194
 30
0.0
 41
1.0
 10
163.8604335922059
 20
240.3633964241182
 30
0.0
 41
1.0
 10
163.3844761657734
 20
239.515385909517
 30
0.0
 41
1.0
 10
163.3844761657734
 20
239.5153859095169
 30
0.0
 41
1.0
 10
162.5615633174195
 20
240.0586843372802
 30
0.0
 41
1.0
 10
161.8458042946433
 20
240.6605527924858
 30
0.0
 41
1.0
 10
160.399861695648
 20
241.8769706290009
 30
0.0
 41
1.0
 10
160.8215024886021
 20
244.4025355741658
 30
0.0
 41
1.0
 10
162.1927861351609
 20
245.6516067953984
 30
0.0
 41
1.0
 10
164.4897773873033
 20
247.7435633235986
 30
0.0
 41
1.0
 10
168.427521965712
 20
246.8593064952171
 30
0.0
 41
1.0
 10
170.8890482340522
 20
245.6996358030169
 30
0.0
 41
1.0
 10
181.4806332507454
 20
240.7088988232569
 30
0.0
 41
1.0
 10
176.550209925767
 20
226.1693452314838
 30
0.0
 41
1.0
 10
159.7234135437939
 20
234.1157683186947
 30
0.0
 41
1.0
 10
158.2143833374316
 20
234.5702210079427
 30
0.0
 41
1.0
 10
156.6026376296279
 20
234.8242358089611
 30
0.0
 41
1.0
 10
154.9250303618721
 20
234.9060277823312
 30
0.0
 41
1.0
 10
148.9340853356682
 20
235.1987194079665
 30
0.0
 41
1.0
 10
142.1056443960909
 20
233.2994337007572
 30
0.0
 41
1.0
 10
136.1406952684
 20
230.5162874441072
 30
0.0
 41
1.0
 10
145.3152660487722
 20
240.0731881465115
 30
0.0
 41
1.0
 10
142.9935469907273
 20
246.0711076820725
 30
0.0
 41
1.0
 10
144.3183867454306
 20
256.1066340891104
 30
0.0
 41
1.0
 10
144.792177846987
 20
259.7022314300787
 30
0.0
 41
1.0
 10
146.0325309315232
 20
262.0426548541268
 30
0.0
 41
1.0
 10
147.6617921685079
 20
265.2631345497846
 30
0.0
 41
1.0
  0
SPLINE
  5
2DC
330
1F
100
AcDbEntity
  8
templatesarea.com
100
AcDbSpline
210
0.0
220
0.0
230
1.0
 70
    13
 71
     3
 72
    59
 73
    55
 74
     0
 42
0.000000001
 43
0.0000000001
 40
0.0
 40
0.0
 40
0.0
 40
0.0
 40
1.0
 40
1.0
 40
1.0
 40
2.0
 40
2.0
 40
2.0
 40
3.0
 40
3.0
 40
3.0
 40
4.0
 40
4.0
 40
4.0
 40
5.0
 40
5.0
 40
5.0
 40
6.0
 40
6.0
 40
6.0
 40
7.0
 40
7.0
 40
7.0
 40
8.0
 40
8.0
 40
8.0
 40
9.0
 40
9.0
 40
9.0
 40
10.0
 40
10.0
 40
10.0
 40
11.0
 40
11.0
 40
11.0
 40
12.0
 40
12.0
 40
12.0
 40
13.0
 40
13.0
 40
13.0
 40
13.8603115932851
 40
13.8603115932851
 40
13.8603115932851
 40
14.93903036863248
 40
14.93903036863248
 40
14.93903036863248
 40
15.80243362813758
 40
15.80243362813758
 40
15.80243362813758
 40
16.80243362813758
 40
16.80243362813758
 40
16.80243362813758
 40
17.80243362813758
 40
17.80243362813758
 40
17.80243362813758
 40
17.80243362813758
 10
120.368397147753
 20
304.4785815028946
 30
0.0
 41
1.0
 10
113.7602080434425
 20
307.1391983110658
 30
0.0
 41
1.0
 10
110.1395658734191
 20
305.1432997981026
 30
0.0
 41
1.0
 10
103.3392607386347
 20
305.1432997981026
 30
0.0
 41
1.0
 10
103.6460598945606
 20
308.006811423936
 30
0.0
 41
1.0
 10
102.839790761718
 20
310.7395509993231
 30
0.0
 41
1.0
 10
102.839790761718
 20
313.613920668133
 30
0.0
 41
1.0
 10
113.1842562309617
 20
312.1534742599062
 30
0.0
 41
1.0
 10
118.0768745449929
 20
311.266205711575
 30
0.0
 41
1.0
 10
125.8366502511124
 20
317.0932497678863
 30
0.0
 41
1.0
 10
130.2098261296132
 20
320.3756282340886
 30
0.0
 41
1.0
 10
130.9125872031329
 20
325.2527916694307
 30
0.0
 41
1.0
 10
129.7966657059911
 20
330.5349521822156
 30
0.0
 41
1.0
 10
129.6173098574092
 20
331.3833061385655
 30
0.0
 41
1.0
 10
129.46054190845
 20
332.0627660103693
 30
0.0
 41
1.0
 10
129.46054190845
 20
332.0627660103693
 30
0.0
 41
1.0
 10
135.1667208878335
 20
331.7529551344937
 30
0.0
 41
1.0
 10
135.8292992767615
 20
330.9275853567071
 30
0.0
 41
1.0
 10
140.3417275750406
 20
334.3123623011984
 30
0.0
 41
1.0
 10
142.1881496715543
 20
333.7322099319456
 30
0.0
 41
1.0
 10
143.8846990726778
 20
333.3332362944021
 30
0.0
 41
1.0
 10
145.8045120290177
 20
332.9914060801143
 30
0.0
 41
1.0
 10
145.5774970331621
 20
332.0215001633394
 30
0.0
 41
1.0
 10
145.3504820373065
 20
331.0515942465646
 30
0.0
 41
1.0
 10
145.1234670414509
 20
330.0816883297899
 30
0.0
 41
1.0
 10
141.8088314694719
 20
314.459183648745
 30
0.0
 41
1.0
 10
147.2770053170432
 20
313.9174703367447
 30
0.0
 41
1.0
 10
151.4074207164427
 20
306.9740292485628
 30
0.0
 41
1.0
 10
157.9818468550016
 20
295.9228399163919
 30
0.0
 41
1.0
 10
152.0654022696581
 20
296.7991711659585
 30
0.0
 41
1.0
 10
148.3662968693668
 20
284.0737825649224
 30
0.0
 41
1.0
 10
145.8632669866324
 20
285.9149209422261
 30
0.0
 41
1.0
 10
143.3602371038979
 20
287.7560593195298
 30
0.0
 41
1.0
 10
140.8572072211635
 20
289.5971976968336
 30
0.0
 41
1.0
 10
129.2606588107375
 20
297.7574529004714
 30
0.0
 41
1.0
 10
136.5722430348728
 20
296.3434503841002
 30
0.0
 41
1.0
 10
140.2326716105472
 20
304.8847674171597
 30
0.0
 41
1.0
 10
144.5189038894483
 20
314.5247281855445
 30
0.0
 41
1.0
 10
137.7696394822321
 20
322.8259794362998
 30
0.0
 41
1.0
 10
129.3326738079795
 20
317.0710478998843
 30
0.0
 41
1.0
 10
126.1650297470024
 20
314.4923001530009
 30
0.0
 41
1.0
 10
123.7292617394924
 20
311.329407731244
 30
0.0
 41
1.0
 10
124.8466764152123
 20
308.4360359776531
 30
0.0
 41
1.0
 10
125.2189860715863
 20
307.4719979470446
 30
0.0
 41
0.9053585781332868
 10
126.0335587031435
 20
306.8360299976891
 30
0.0
 41
0.9053585781332868
 10
127.0591173736803
 20
306.7086988625489
 30
0.0
 41
1.0
 10
129.9917572640352
 20
306.3445886688658
 30
0.0
 41
1.0
 10
132.9876994866268
 20
308.2836779852257
 30
0.0
 41
1.0
 10
132.9893266200084
 20
313.2424487890773
 30
0.0
 41
1.0
 10
135.2428064444568
 20
312.3803043255894
 30
0.0
 41
1.0
 10
136.9032152061842
 20
310.7338445825764
 30
0.0
 41
1.0
 10
136.4203096889906
 20
308.6902340851473
 30
0.0
 41
1.0
 10
134.6811206738429
 20
301.3324437365209
 30
0.0
 41
1.0
 10
125.2223386371673
 20
302.5243715344978
 30
0.0
 41
1.0
 10
120.368397147753
 20
304.4785815028946
 30
0.0
 41
1.0
  0
SPLINE
  5
2DD
330
1F
100
AcDbEntity
  8
templatesarea.com
100
AcDbSpline
210
0.0
220
0.0
230
1.0
 70
     9
 71
     3
 72
    14
 73
    10
 74
     0
 42
0.000000001
 43
0.0000000001
 40
0.0
 40
0.0
 40
0.0
 40
0.0
 40
1.0
 40
1.0
 40
1.0
 40
2.0
 40
2.0
 40
2.0
 40
3.0
 40
3.0
 40
3.0
 40
3.0
 10
177.2242804039766
 20
250.2512957164299
 30
0.0
 10
181.8103373294464
 20
245.9518277209079
 30
0.0
 10
182.06498617677
 20
244.0111704922847
 30
0.0
 10
182.06498617677
 20
237.8393637575241
 30
0.0
 10
189.9859681559852
 20
237.8393637575241
 30
0.0
 10
192.6939799254697
 20
247.8136254403225
 30
0.0
 10
187.4020709507424
 20
253.1063269729313
 30
0.0
 10
183.8681346129542
 20
250.8975474129991
 30
0.0
 10
181.3286999048632
 20
250.8172612996039
 30
0.0
 10
177.2242804039766
 20
250.2512957164299
 30
0.0
  0
SPLINE
  5
2DE
330
1F
100
AcDbEntity
  8
templatesarea.com
100
AcDbSpline
210
0.0
220
0.0
230
1.0
 70
    13
 71
     3
 72
    32
 73
    28
 74
     0
 42
0.000000001
 43
0.0000000001
 40
0.0
 40
0.0
 40
0.0
 40
0.0
 40
1.0
 40
1.0
 40
1.0
 40
2.0
 40
2.0
 40
2.0
 40
3.0
 40
3.0
 40
3.0
 40
4.0
 40
4.0
 40
4.0
 40
5.0
 40
5.0
 40
5.0
 40
6.0
 40
6.0
 40
6.0
 40
7.0
 40
7.0
 40
7.0
 40
8.0
 40
8.0
 40
8.0
 40
9.0
 40
9.0
 40
9.0
 40
9.0
 10
206.7025989924308
 20
261.8566415193405
 30
0.0
 41
1.0
 10
205.8131112820315
 20
263.5735860766143
 30
0.0
 41
1.0
 10
204.9236235716321
 20
265.2905306338882
 30
0.0
 41
1.0
 10
204.0341358612328
 20
267.007475191162
 30
0.0
 41
1.0
 10
201.62753385408
 20
263.507064051761
 30
0.0
 41
1.0
 10
200.3048340056567
 20
261.3284809471137
 30
0.0
 41
1.0
 10
198.0600723179047
 20
259.3754598155392
 30
0.0
 41
1.0
 10
191.2157009649093
 20
253.4204176613669
 30
0.0
 41
1.0
 10
195.6713028630854
 20
250.427085054545
 30
0.0
 41
1.0
 10
193.7919896144897
 20
242.7367374188443
 30
0.0
 41
1.0
 10
192.8117540266595
 20
238.7256812363975
 30
0.0
 41
1.0
 10
197.6149718116583
 20
248.9134580124702
 30
0.0
 41
1.0
 10
204.4064795539581
 20
253.4784328982922
 30
0.0
 41
1.0
 10
209.330245392732
 20
247.6613750712878
 30
0.0
 41
1.0
 10
204.1175129503658
 20
239.0140930494728
 30
0.0
 41
1.0
 10
197.5799407532963
 20
237.9634783217659
 30
0.0
 41
1.0
 10
191.2736369460465
 20
236.9499553029129
 30
0.0
 41
1.0
 10
187.5198450519322
 20
235.4329995177358
 30
0.0
 41
1.0
 10
181.7545412545893
 20
232.8126446499443
 30
0.0
 41
1.0
 10
188.1588844717798
 20
228.6837351105196
 30
0.0
 41
1.0
 10
191.9202056657683
 20
228.8779117914853
 30
0.0
 41
1.0
 10
197.0094575901979
 20
230.0233956976068
 30
0.0
 41
1.0
 10
204.9579413279008
 20
231.8121195803479
 30
0.0
 41
1.0
 10
210.9413570542305
 20
238.5955432322564
 30
0.0
 41
1.0
 10
212.5362212791584
 20
244.9763474803666
 30
0.0
 41
1.0
 10
213.9410301241043
 20
250.5979605337948
 30
0.0
 41
1.0
 10
209.2012962254131
 20
257.0325794620584
 30
0.0
 41
1.0
 10
206.7025989924308
 20
261.8566415193405
 30
0.0
 41
1.0
  0
SPLINE
  5
2DF
330
1F
100
AcDbEntity
  8
templatesarea.com
100
AcDbSpline
210
0.0
220
0.0
230
1.0
 70
    13
 71
     3
 72
    38
 73
    34
 74
     0
 42
0.000000001
 43
0.0000000001
 40
0.0
 40
0.0
 40
0.0
 40
0.0
 40
1.0
 40
1.0
 40
1.0
 40
2.0
 40
2.0
 40
2.0
 40
3.0
 40
3.0
 40
3.0
 40
4.0
 40
4.0
 40
4.0
 40
5.0
 40
5.0
 40
5.0
 40
6.0
 40
6.0
 40
6.0
 40
7.0
 40
7.0
 40
7.0
 40
8.0
 40
8.0
 40
8.0
 40
9.0
 40
9.0
 40
9.0
 40
10.0
 40
10.0
 40
10.0
 40
11.0
 40
11.0
 40
11.0
 40
11.0
 10
224.2656816463108
 20
217.3595888439627
 30
0.0
 41
1.0
 10
225.6309946901624
 20
218.7249018878143
 30
0.0
 41
1.0
 10
226.9963077340139
 20
220.0902149316658
 30
0.0
 41
1.0
 10
228.3616207778655
 20
221.4555279755174
 30
0.0
 41
1.0
 10
219.4159407136683
 20
229.1675916971709
 30
0.0
 41
1.0
 10
216.8314887179085
 20
229.0243764879852
 30
0.0
 41
1.0
 10
220.0455486947262
 20
244.1694443012188
 30
0.0
 41
1.0
 10
225.682299603691
 20
238.532693392254
 30
0.0
 41
1.0
 10
224.6452376157576
 20
236.66273232666
 30
0.0
 41
1.0
 10
225.6309418529702
 20
228.7786042889342
 30
0.0
 41
1.0
 10
226.8501336420706
 20
230.9173217321425
 30
0.0
 41
1.0
 10
226.4762840893705
 20
231.5832288641727
 30
0.0
 41
1.0
 10
227.6827156965787
 20
234.1833735059861
 30
0.0
 41
1.0
 10
228.0882675645386
 20
235.0579611282134
 30
0.0
 41
1.0
 10
229.1449849879329
 20
236.098351859249
 30
0.0
 41
1.0
 10
229.986047411773
 20
236.6887282251729
 30
0.0
 41
1.0
 10
232.3376459019502
 20
233.3526143346054
 30
0.0
 41
1.0
 10
232.2591034158943
 20
230.3610253551227
 30
0.0
 41
1.0
 10
230.9089018089832
 20
228.2754885457626
 30
0.0
 41
1.0
 10
229.7520050693682
 20
226.4885875461491
 30
0.0
 41
1.0
 10
230.3275606029083
 20
225.3285998307962
 30
0.0
 41
1.0
 10
231.6497056608145
 20
224.4658213210032
 30
0.0
 41
1.0
 10
234.0985510030509
 20
222.8673905856085
 30
0.0
 41
1.0
 10
234.9332729638391
 20
224.0620130803826
 30
0.0
 41
1.0
 10
237.2559430913418
 20
225.3986619475202
 30
0.0
 41
1.0
 10
244.6227685998172
 20
229.6392428924473
 30
0.0
 41
1.0
 10
251.3161576763882
 20
233.8599306345489
 30
0.0
 41
1.0
 10
257.5309210483256
 20
240.075011029639
 30
0.0
 41
1.0
 10
240.6361232001204
 20
240.075011029639
 30
0.0
 41
1.0
 10
230.4308308948668
 20
242.4664751812553
 30
0.0
 41
1.0
 10
223.8932586977973
 20
258.8155176722645
 30
0.0
 41
1.0
 10
215.497534547568
 20
244.7426221611144
 30
0.0
 41
1.0
 10
205.101394304451
 20
232.2925681681088
 30
0.0
 41
1.0
 10
224.2656816463108
 20
217.3595888439626
 30
0.0
 41
1.0
  0
SPLINE
  5
2E0
330
1F
100
AcDbEntity
  8
templatesarea.com
100
AcDbSpline
210
0.0
220
0.0
230
1.0
 70
    13
 71
     3
 72
    56
 73
    52
 74
     0
 42
0.000000001
 43
0.0000000001
 40
0.0
 40
0.0
 40
0.0
 40
0.0
 40
1.0
 40
1.0
 40
1.0
 40
2.0
 40
2.0
 40
2.0
 40
3.0
 40
3.0
 40
3.0
 40
4.0
 40
4.0
 40
4.0
 40
5.0
 40
5.0
 40
5.0
 40
6.0
 40
6.0
 40
6.0
 40
7.0
 40
7.0
 40
7.0
 40
8.0
 40
8.0
 40
8.0
 40
9.0
 40
9.0
 40
9.0
 40
10.0
 40
10.0
 40
10.0
 40
11.0
 40
11.0
 40
11.0
 40
12.0
 40
12.0
 40
12.0
 40
13.0
 40
13.0
 40
13.0
 40
14.0
 40
14.0
 40
14.0
 40
15.0
 40
15.0
 40
15.0
 40
16.0
 40
16.0
 40
16.0
 40
17.0
 40
17.0
 40
17.0
 40
17.0
 10
285.7064329911821
 20
273.7083935676072
 30
0.0
 41
1.0
 10
285.157401728076
 20
272.8707655612535
 30
0.0
 41
1.0
 10
284.6083704649699
 20
272.0331375548998
 30
0.0
 41
1.0
 10
284.0593392018638
 20
271.1955095485462
 30
0.0
 41
1.0
 10
281.5246598410616
 20
274.3474329874548
 30
0.0
 41
1.0
 10
282.752331999494
 20
277.3734189789942
 30
0.0
 41
1.0
 10
285.5363500698136
 20
277.1834428548004
 30
0.0
 41
1.0
 10
288.0695235706408
 20
277.0104274692705
 30
0.0
 41
1.0
 10
288.8519367112505
 20
275.7081756141898
 30
0.0
 41
1.0
 10
289.4025266715236
 20
274.6503486097613
 30
0.0
 41
1.0
 10
291.82696123101
 20
269.9944673349321
 30
0.0
 41
1.0
 10
280.2970669384174
 20
260.1476489594776
 30
0.0
 41
1.0
 10
277.5129696123096
 20
255.7125743104322
 30
0.0
 41
1.0
 10
275.3640281724301
 20
252.2900716107819
 30
0.0
 41
1.0
 10
270.6567891468801
 20
245.0382462509112
 30
0.0
 41
1.0
 10
280.1195339729631
 20
245.0382462509112
 30
0.0
 41
1.0
 10
280.8642213584137
 20
245.0382462509112
 30
0.0
 41
1.0
 10
285.4539240501384
 20
246.0387713205076
 30
0.0
 41
1.0
 10
285.5007642209346
 20
246.7053124988431
 30
0.0
 41
1.0
 10
286.7969133803279
 20
265.0607945226395
 30
0.0
 41
1.0
 10
296.0004917791628
 20
273.3602228902674
 30
0.0
 41
1.0
 10
311.9530175620612
 20
279.740710115225
 30
0.0
 41
1.0
 10
306.9649752790983
 20
284.7287523981879
 30
0.0
 41
1.0
 10
303.3848328168191
 20
286.0213350471145
 30
0.0
 41
1.0
 10
297.4255901058749
 20
281.1290337562359
 30
0.0
 41
1.0
 10
294.8640430328903
 20
279.0255851387541
 30
0.0
 41
1.0
 10
299.0201373076502
 20
277.9202839172242
 30
0.0
 41
1.0
 10
298.3792750046752
 20
274.4090147348468
 30
0.0
 41
1.0
 10
293.1810463715403
 20
273.1140544122757
 30
0.0
 41
1.0
 10
292.3276200447489
 20
280.5449185975758
 30
0.0
 41
1.0
 10
293.4003471373494
 20
283.763575410106
 30
0.0
 41
1.0
 10
285.5146339838607
 20
285.3650971212385
 30
0.0
 41
1.0
 10
303.6627036100705
 20
285.7078784049841
 30
0.0
 41
1.0
 10
305.4309002436809
 20
288.163381233425
 30
0.0
 41
1.0
 10
305.8388297852852
 20
288.729901607116
 30
0.0
 41
1.0
 10
303.9504813768405
 20
291.4589954162483
 30
0.0
 41
1.0
 10
303.9504813768405
 20
291.4589954162483
 30
0.0
 41
1.0
 10
303.4126251798635
 20
292.700193895858
 30
0.0
 41
1.0
 10
302.8747689828865
 20
293.9413923754679
 30
0.0
 41
1.0
 10
302.3369127859094
 20
295.1825908550777
 30
0.0
 41
1.0
 10
299.730401262448
 20
293.2380500928351
 30
0.0
 41
1.0
 10
297.1238897389866
 20
291.2935093305925
 30
0.0
 41
1.0
 10
294.5173782155253
 20
289.34896856835
 30
0.0
 41
1.0
 10
288.4657232555991
 20
284.8344796195791
 30
0.0
 41
1.0
 10
285.1259635987767
 20
284.6991899892083
 30
0.0
 41
1.0
 10
278.2577362535484
 20
281.5294339979661
 30
0.0
 41
1.0
 10
279.7045506662135
 20
276.9255445201626
 30
0.0
 41
1.0
 10
281.7022720623041
 20
273.9499652098862
 30
0.0
 41
1.0
 10
280.2436485372049
 20
269.3657311675438
 30
0.0
 41
1.0
 10
283.5734219647205
 20
269.3657311675438
 30
0.0
 41
1.0
 10
288.2071908746561
 20
269.6106315529251
 30
0.0
 41
1.0
 10
285.706432991182
 20
273.7083935676072
 30
0.0
 41
1.0
  0
LWPOLYLINE
  5
2E1
330
1F
100
AcDbEntity
  8
templatesarea.com
100
AcDbPolyline
 90
        4
 70
     0
 43
0.0
 10
313.8251185339353
 20
286.993169521401
 10
316.6729375137152
 20
280.1831951804624
 10
320.2636209958182
 20
280.1831951804624
 10
313.8251185339353
 20
286.993169521401
  0
SPLINE
  5
2E2
330
1F
100
AcDbEntity
  8
templatesarea.com
100
AcDbSpline
210
0.0
220
0.0
230
1.0
 70
     9
 71
     3
 72
    29
 73
    25
 74
     0
 42
0.000000001
 43
0.0000000001
 40
0.0
 40
0.0
 40
0.0
 40
0.0
 40
1.0
 40
1.0
 40
1.0
 40
2.0
 40
2.0
 40
2.0
 40
3.0
 40
3.0
 40
3.0
 40
4.0
 40
4.0
 40
4.0
 40
5.0
 40
5.0
 40
5.0
 40
6.0
 40
6.0
 40
6.0
 40
7.0
 40
7.0
 40
7.0
 40
8.0
 40
8.0
 40
8.0
 40
8.0
 10
325.5472873685779
 20
284.384227487103
 30
0.0
 10
317.7365501906785
 20
287.1278251054666
 30
0.0
 10
315.2635318330565
 20
291.9995991472145
 30
0.0
 10
316.5680821059936
 20
298.7256416085029
 30
0.0
 10
317.0851468678795
 20
301.3883190671661
 30
0.0
 10
318.6086808834732
 20
300.5611264062521
 30
0.0
 10
321.4845564122578
 20
302.9662225534301
 30
0.0
 10
323.4955927807576
 20
304.6483474011103
 30
0.0
 10
325.8106543525979
 20
307.0280816960806
 30
0.0
 10
326.9721479279257
 20
302.8001024214692
 30
0.0
 10
327.7223039627585
 20
300.0703745660318
 30
0.0
 10
328.5288901187538
 20
298.3511580094976
 30
0.0
 10
325.9764574614063
 20
297.7658540140152
 30
0.0
 10
324.256606858567
 20
297.3714772121844
 30
0.0
 10
323.3759957964403
 20
297.7003094772158
 30
0.0
 10
321.8656974974677
 20
296.6110179248921
 30
0.0
 10
317.938573194671
 20
293.7765139175214
 30
0.0
 10
320.9403861708249
 20
292.4646721120745
 30
0.0
 10
325.1411014543129
 20
291.4203978474196
 30
0.0
 10
327.990109270915
 20
290.7121681245177
 30
0.0
 10
328.3564295237409
 20
290.2027119182941
 30
0.0
 10
327.0237434460108
 20
287.0837588872556
 30
0.0
 10
326.684053138003
 20
286.2892196110591
 30
0.0
 10
326.1986906913768
 20
285.4955521485322
 30
0.0
 10
325.5472873685779
 20
284.384227487103
 30
0.0
  0
SPLINE
  5
2E3
330
1F
100
AcDbEntity
  8
templatesarea.com
100
AcDbSpline
210
0.0
220
0.0
230
1.0
 70
     9
 71
     3
 72
    26
 73
    22
 74
     0
 42
0.000000001
 43
0.0000000001
 40
0.0
 40
0.0
 40
0.0
 40
0.0
 40
1.0
 40
1.0
 40
1.0
 40
2.0
 40
2.0
 40
2.0
 40
3.0
 40
3.0
 40
3.0
 40
4.0
 40
4.0
 40
4.0
 40
5.0
 40
5.0
 40
5.0
 40
6.0
 40
6.0
 40
6.0
 40
7.0
 40
7.0
 40
7.0
 40
7.0
 10
306.136038990845
 20
308.2185036340827
 30
0.0
 10
305.1481948473524
 20
303.8791699771216
 30
0.0
 10
304.4010505324691
 20
301.9666485532914
 30
0.0
 10
306.1921520888547
 20
299.3148291376047
 30
0.0
 10
308.622927111393
 20
295.7171711461445
 30
0.0
 10
311.4015557881186
 20
295.3961059483518
 30
0.0
 10
310.7770994332903
 20
300.3956403205965
 30
0.0
 10
310.6438704534115
 20
301.4622647175094
 30
0.0
 10
311.5561838307978
 20
303.7731257325778
 30
0.0
 10
313.1326607128751
 20
305.4093614789197
 30
0.0
 10
313.7411073984971
 20
306.0411093662576
 30
0.0
 10
314.4710532073519
 20
306.5503278051167
 30
0.0
 10
315.1514641486135
 20
306.9749010622324
 30
0.0
 10
316.0502247862263
 20
307.5360320423293
 30
0.0
 10
316.8329549499885
 20
307.9434067934166
 30
0.0
 10
317.6471496616461
 20
308.2858710540096
 30
0.0
 10
325.3192684660725
 20
311.5126912127193
 30
0.0
 10
315.6545798917851
 20
314.5839322592919
 30
0.0
 10
310.2059822238867
 20
313.1848298310928
 30
0.0
 10
306.3450365041946
 20
312.1939739676505
 30
0.0
 10
306.8118530963939
 20
311.7358755121476
 30
0.0
 10
306.136038990845
 20
308.2185036340827
 30
0.0
  0
SPLINE
  5
2E4
330
1F
100
AcDbEntity
  8
templatesarea.com
100
AcDbSpline
210
0.0
220
0.0
230
1.0
 70
    13
 71
     3
 72
    68
 73
    64
 74
     0
 42
0.000000001
 43
0.0000000001
 40
0.0
 40
0.0
 40
0.0
 40
0.0
 40
1.0
 40
1.0
 40
1.0
 40
2.0
 40
2.0
 40
2.0
 40
3.0
 40
3.0
 40
3.0
 40
4.0
 40
4.0
 40
4.0
 40
5.0
 40
5.0
 40
5.0
 40
6.0
 40
6.0
 40
6.0
 40
7.0
 40
7.0
 40
7.0
 40
8.0
 40
8.0
 40
8.0
 40
9.0
 40
9.0
 40
9.0
 40
10.0
 40
10.0
 40
10.0
 40
11.0
 40
11.0
 40
11.0
 40
12.0
 40
12.0
 40
12.0
 40
13.0
 40
13.0
 40
13.0
 40
14.0
 40
14.0
 40
14.0
 40
15.0
 40
15.0
 40
15.0
 40
16.0
 40
16.0
 40
16.0
 40
17.0
 40
17.0
 40
17.0
 40
18.0
 40
18.0
 40
18.0
 40
19.0
 40
19.0
 40
19.0
 40
20.0
 40
20.0
 40
20.0
 40
21.0
 40
21.0
 40
21.0
 40
21.0
 10
278.2577362535483
 20
334.0321138343025
 30
0.0
 41
1.0
 10
279.1679361432506
 20
333.5770006801533
 30
0.0
 41
1.0
 10
280.078136032953
 20
333.1218875260042
 30
0.0
 41
1.0
 10
280.9883359226554
 20
332.666774371855
 30
0.0
 41
1.0
 10
271.7406913056096
 20
329.2384859996697
 30
0.0
 41
1.0
 10
272.7779910609074
 20
337.9800824093825
 30
0.0
 41
1.0
 10
279.1353355957254
 20
340.2097062415979
 30
0.0
 41
1.0
 10
283.8023126808956
 20
341.8464967784568
 30
0.0
 41
1.0
 10
290.2955016366015
 20
333.760583504103
 30
0.0
 41
1.0
 10
289.7848565935557
 20
327.0680662412017
 30
0.0
 41
1.0
 10
289.6311003645461
 20
325.0510856885908
 30
0.0
 41
1.0
 10
287.3803944926828
 20
324.4253612411522
 30
0.0
 41
1.0
 10
287.3803944926828
 20
321.4959880553668
 30
0.0
 41
1.0
 10
291.3476222242831
 20
322.5849625845378
 30
0.0
 41
1.0
 10
292.4502287490159
 20
323.9551366500626
 30
0.0
 41
1.0
 10
294.5173782155253
 20
327.4537249063361
 30
0.0
 41
1.0
 10
299.7699763193306
 20
322.2005720120139
 30
0.0
 41
1.0
 10
296.7703032494567
 20
317.9817071530396
 30
0.0
 41
1.0
 10
292.5049152428389
 20
313.0422486682122
 30
0.0
 41
1.0
 10
290.2179102200033
 20
310.3934409724752
 30
0.0
 41
1.0
 10
288.0356813491011
 20
307.6610184202408
 30
0.0
 41
1.0
 10
285.2186928709114
 20
305.6026663462158
 30
0.0
 41
1.0
 10
280.7443073509439
 20
302.3335235966344
 30
0.0
 41
1.0
 10
275.1290347605675
 20
300.5816536553827
 30
0.0
 41
1.0
 10
271.1548325196102
 20
305.2812841252706
 30
0.0
 41
1.0
 10
267.4085699253701
 20
309.7116034270269
 30
0.0
 41
1.0
 10
270.333665742477
 20
317.01094933918
 30
0.0
 41
1.0
 10
277.2078735413038
 20
317.0923502142449
 30
0.0
 41
1.0
 10
280.2695651799297
 20
317.1614890014828
 30
0.0
 41
1.0
 10
281.3078160046852
 20
313.8826770457471
 30
0.0
 41
1.0
 10
279.2963041014565
 20
310.6958018042647
 30
0.0
 41
1.0
 10
278.5920575071891
 20
313.286172535467
 30
0.0
 41
1.0
 10
276.3895980710818
 20
314.2994832356241
 30
0.0
 41
1.0
 10
275.1058128146397
 20
313.6655954420063
 30
0.0
 41
1.0
 10
271.9450919832466
 20
311.3387247577316
 30
0.0
 41
1.0
 10
272.3015052625539
 20
308.0056225871138
 30
0.0
 41
1.0
 10
276.6792929970006
 20
306.7365669493826
 30
0.0
 41
1.0
 10
281.1691275475055
 20
305.6953188533199
 30
0.0
 41
1.0
 10
288.2147994303185
 20
311.5954342555472
 30
0.0
 41
1.0
 10
282.4330896848286
 20
318.9127248964292
 30
0.0
 41
1.0
 10
273.9313212900556
 20
329.67185664927
 30
0.0
 41
1.0
 10
249.7639330654845
 20
308.4812365717976
 30
0.0
 41
1.0
 10
272.0329866523041
 20
297.5261052548637
 30
0.0
 41
1.0
 10
283.0476390661382
 20
292.1073870190976
 30
0.0
 41
1.0
 10
292.9624589078246
 20
305.4772836893637
 30
0.0
 41
1.0
 10
301.3439962719752
 20
309.8287434819116
 30
0.0
 41
1.0
 10
299.3190901405493
 20
295.9922679868107
 30
0.0
 41
1.0
 10
287.2661869019598
 20
289.903759085395
 30
0.0
 41
1.0
 10
274.9064845074443
 20
286.4942543350013
 30
0.0
 41
1.0
 10
268.5042019407457
 20
292.8962198785473
 30
0.0
 41
1.0
 10
263.2694363892741
 20
293.2658688744755
 30
0.0
 41
1.0
 10
255.1714762351216
 20
297.2926177029759
 30
0.0
 41
1.0
 10
247.6285443653785
 20
301.0433978771405
 30
0.0
 41
1.0
 10
257.2751626199679
 20
317.1526916089982
 30
0.0
 41
1.0
 10
267.6957929016231
 20
323.9481621407054
 30
0.0
 41
1.0
 10
268.8738509366739
 20
324.7161507278719
 30
0.0
 41
1.0
 10
270.0618952010316
 20
325.3657311675434
 30
0.0
 41
1.0
 10
271.2357526793105
 20
325.8643293307905
 30
0.0
 41
1.0
 10
273.5454248575568
 20
326.8455159880786
 30
0.0
 41
1.0
 10
276.2358418420721
 20
327.6850725519439
 30
0.0
 41
1.0
 10
278.256468160938
 20
327.9514512559136
 30
0.0
 41
1.0
 10
286.0769538007799
 20
328.982727571312
 30
0.0
 41
1.0
 10
285.0770627774886
 20
336.2858314261154
 30
0.0
 41
1.0
 10
278.2577362535484
 20
334.0321138343024
 30
0.0
 41
1.0
  0
SPLINE
  5
2E5
330
1F
100
AcDbEntity
  8
templatesarea.com
100
AcDbSpline
210
0.0
220
0.0
230
1.0
 70
    13
 71
     3
 72
    56
 73
    52
 74
     0
 42
0.000000001
 43
0.0000000001
 40
0.0
 40
0.0
 40
0.0
 40
0.0
 40
1.0
 40
1.0
 40
1.0
 40
2.0
 40
2.0
 40
2.0
 40
3.0
 40
3.0
 40
3.0
 40
4.0
 40
4.0
 40
4.0
 40
5.0
 40
5.0
 40
5.0
 40
6.0
 40
6.0
 40
6.0
 40
7.0
 40
7.0
 40
7.0
 40
8.0
 40
8.0
 40
8.0
 40
9.0
 40
9.0
 40
9.0
 40
10.0
 40
10.0
 40
10.0
 40
11.0
 40
11.0
 40
11.0
 40
12.0
 40
12.0
 40
12.0
 40
13.0
 40
13.0
 40
13.0
 40
14.0
 40
14.0
 40
14.0
 40
15.0
 40
15.0
 40
15.0
 40
16.0
 40
16.0
 40
16.0
 40
17.0
 40
17.0
 40
17.0
 40
17.0
 10
240.5253236082877
 20
295.5550138035911
 30
0.0
 41
1.0
 10
239.4702705564445
 20
296.8582167281297
 30
0.0
 41
1.0
 10
238.4152175046013
 20
298.1614196526683
 30
0.0
 41
1.0
 10
237.3601644527582
 20
299.4646225772068
 30
0.0
 41
1.0
 10
235.2256475663218
 20
298.1007889747341
 30
0.0
 41
1.0
 10
229.7151511278788
 20
297.0088027256133
 30
0.0
 41
1.0
 10
223.9464393316455
 20
297.2733585464557
 30
0.0
 41
1.0
 10
221.5111467291826
 20
297.3847921845935
 30
0.0
 41
1.0
 10
218.7490825121803
 20
298.0189177455759
 30
0.0
 41
1.0
 10
216.6285146444582
 20
298.5233015813579
 30
0.0
 41
1.0
 10
209.7047289917373
 20
300.1703953706762
 30
0.0
 41
1.0
 10
206.170713398161
 20
304.311034766747
 30
0.0
 41
1.0
 10
205.0379896739316
 20
303.2621636663795
 30
0.0
 41
1.0
 10
203.565971920635
 20
301.8988584358277
 30
0.0
 41
1.0
 10
202.0939541673385
 20
300.535553205276
 30
0.0
 41
1.0
 10
200.6219364140419
 20
299.1722479747242
 30
0.0
 41
1.0
 10
202.3269661844973
 20
296.9801121303033
 30
0.0
 41
1.0
 10
204.2871995927935
 20
294.3400225712627
 30
0.0
 41
1.0
 10
205.3070630746983
 20
289.8695998407027
 30
0.0
 41
1.0
 10
206.7043426197701
 20
283.742810393611
 30
0.0
 41
1.0
 10
206.8227507672651
 20
280.0484603406086
 30
0.0
 41
1.0
 10
207.1371584788533
 20
280.4338019825904
 30
0.0
 41
1.0
 10
215.2611145315188
 20
290.3869816257412
 30
0.0
 41
1.0
 10
223.5067282189933
 20
284.0701367986674
 30
0.0
 41
1.0
 10
222.2341180286803
 20
276.5505061306403
 30
0.0
 41
1.0
 10
221.6969222966045
 20
273.3740926531936
 30
0.0
 41
1.0
 10
219.0831456592295
 20
269.7372030465995
 30
0.0
 41
1.0
 10
215.3622449171972
 20
270.2022760114594
 30
0.0
 41
1.0
 10
211.6978535521154
 20
270.6603744669623
 30
0.0
 41
1.0
 10
208.9584564905237
 20
274.3776294427397
 30
0.0
 41
1.0
 10
214.7084639207538
 20
277.559115290628
 30
0.0
 41
1.0
 10
215.1133817424085
 20
276.696336780835
 30
0.0
 41
1.0
 10
215.0306386995806
 20
275.465098111936
 30
0.0
 41
1.0
 10
215.3181786989862
 20
274.5905104897087
 30
0.0
 41
1.0
 10
215.5564215981629
 20
273.8654785397191
 30
0.0
 41
1.0
 10
216.1613017733182
 20
273.494878474333
 30
0.0
 41
1.0
 10
216.5080458464713
 20
272.7788816841924
 30
0.0
 41
1.0
 10
216.5080458464713
 20
272.7788816841924
 30
0.0
 41
1.0
 10
217.1189494615259
 20
273.3565771240125
 30
0.0
 41
1.0
 10
217.7694809706552
 20
273.9922878007579
 30
0.0
 41
1.0
 10
221.4060535540967
 20
277.545879574007
 30
0.0
 41
1.0
 10
218.2951846134494
 20
279.7830327060967
 30
0.0
 41
1.0
 10
215.0636091074507
 20
279.5668229160255
 30
0.0
 41
1.0
 10
213.0592302251555
 20
279.432722122477
 30
0.0
 41
1.0
 10
211.0763296614488
 20
276.6888074809608
 30
0.0
 41
1.0
 10
210.5587101090458
 20
275.3941641815423
 30
0.0
 41
1.0
 10
206.8919410703195
 20
266.223793957942
 30
0.0
 41
1.0
 10
215.6068282794259
 20
264.8204117171827
 30
0.0
 41
1.0
 10
222.1571606583874
 20
263.6649415817544
 30
0.0
 41
1.0
 10
222.3129775378888
 20
281.1054947871556
 30
0.0
 41
1.0
 10
227.1596274947935
 20
288.1367512886069
 30
0.0
 41
1.0
 10
240.5253236082877
 20
295.5550138035911
 30
0.0
 41
1.0
  0
SPLINE
  5
2E6
330
1F
100
AcDbEntity
  8
templatesarea.com
100
AcDbSpline
210
0.0
220
0.0
230
1.0
 70
    13
 71
     3
 72
    23
 73
    19
 74
     0
 42
0.000000001
 43
0.0000000001
 40
0.0
 40
0.0
 40
0.0
 40
0.0
 40
1.0
 40
1.0
 40
1.0
 40
2.0
 40
2.0
 40
2.0
 40
3.0
 40
3.0
 40
3.0
 40
4.0
 40
4.0
 40
4.0
 40
5.0
 40
5.0
 40
5.0
 40
6.0
 40
6.0
 40
6.0
 40
6.0
 10
254.9232471066381
 20
320.5030715414326
 30
0.0
 41
1.0
 10
254.9232471066381
 20
318.3220315073526
 30
0.0
 41
1.0
 10
261.5640895956661
 20
325.4753419225538
 30
0.0
 41
1.0
 10
265.9556528170175
 20
330.0928633959189
 30
0.0
 41
1.0
 10
269.0837202636932
 20
333.3807105115036
 30
0.0
 41
1.0
 10
269.2410430031696
 20
333.9175892204267
 30
0.0
 41
1.0
 10
264.4840313426617
 20
333.8732059790632
 30
0.0
 41
1.0
 10
261.2557053239773
 20
333.843405802719
 30
0.0
 41
1.0
 10
258.0273793052928
 20
333.8136056263749
 30
0.0
 41
1.0
 10
254.7990532866083
 20
333.7838054500308
 30
0.0
 41
1.0
 10
254.8404512266181
 20
332.2943778419376
 30
0.0
 41
1.0
 10
254.8818491666281
 20
330.8049502338442
 30
0.0
 41
1.0
 10
254.923247106638
 20
329.3155226257509
 30
0.0
 41
1.0
 10
254.9232471066381
 20
327.2468672992666
 30
0.0
 41
1.0
 10
254.9232471066381
 20
325.1782119727823
 30
0.0
 41
1.0
 10
254.9232471066381
 20
323.1095566462979
 30
0.0
 41
1.0
 10
254.9232471066381
 20
322.2407282780094
 30
0.0
 41
1.0
 10
254.9232471066381
 20
321.371899909721
 30
0.0
 41
1.0
 10
254.9232471066381
 20
320.5030715414325
 30
0.0
 41
1.0
  0
SPLINE
  5
2E7
330
1F
100
AcDbEntity
  8
templatesarea.com
100
AcDbSpline
210
0.0
220
0.0
230
1.0
 70
    13
 71
     3
 72
    17
 73
    13
 74
     0
 42
0.000000001
 43
0.0000000001
 40
0.0
 40
0.0
 40
0.0
 40
0.0
 40
1.0
 40
1.0
 40
1.0
 40
2.0
 40
2.0
 40
2.0
 40
3.0
 40
3.0
 40
3.0
 40
4.0
 40
4.0
 40
4.0
 40
4.0
 10
253.7894930571626
 20
340.1341754754917
 30
0.0
 41
1.0
 10
253.9954788505626
 20
340.2682762690403
 30
0.0
 41
1.0
 10
260.6749981642074
 20
342.1059009730694
 30
0.0
 41
1.0
 10
259.7802003160021
 20
343.6693006501021
 30
0.0
 41
1.0
 10
258.963099558779
 20
345.0965388830943
 30
0.0
 41
1.0
 10
258.1459988015561
 20
346.5237771160864
 30
0.0
 41
1.0
 10
257.3288980443331
 20
347.9510153490786
 30
0.0
 41
1.0
 10
254.9960831759473
 20
346.8279872495994
 30
0.0
 41
1.0
 10
252.6632683075615
 20
345.7049591501203
 30
0.0
 41
1.0
 10
250.3304534391757
 20
344.581931050641
 30
0.0
 41
1.0
 10
251.4834666451713
 20
343.0993458589245
 30
0.0
 41
1.0
 10
252.6364798511671
 20
341.616760667208
 30
0.0
 41
1.0
 10
253.7894930571628
 20
340.1341754754916
 30
0.0
 41
1.0
  0
SPLINE
  5
2E8
330
1F
100
AcDbEntity
  8
templatesarea.com
100
AcDbSpline
210
0.0
220
0.0
230
1.0
 70
    13
 71
     3
 72
    32
 73
    28
 74
     0
 42
0.000000001
 43
0.0000000001
 40
0.0
 40
0.0
 40
0.0
 40
0.0
 40
1.0
 40
1.0
 40
1.0
 40
2.0
 40
2.0
 40
2.0
 40
3.0
 40
3.0
 40
3.0
 40
4.0
 40
4.0
 40
4.0
 40
5.0
 40
5.0
 40
5.0
 40
6.0
 40
6.0
 40
6.0
 40
7.0
 40
7.0
 40
7.0
 40
8.0
 40
8.0
 40
8.0
 40
9.0
 40
9.0
 40
9.0
 40
9.0
 10
244.0625886891782
 20
362.2691282687627
 30
0.0
 41
1.0
 10
241.5181872850299
 20
360.1798400187636
 30
0.0
 41
1.0
 10
238.9737858808815
 20
358.0905517687644
 30
0.0
 41
1.0
 10
236.4293844767332
 20
356.0012635187653
 30
0.0
 41
1.0
 10
241.5183193780099
 20
353.5161190255565
 30
0.0
 41
1.0
 10
243.5144556583377
 20
352.0070888191942
 30
0.0
 41
1.0
 10
246.7312895877405
 20
347.4370415629305
 30
0.0
 41
1.0
 10
247.4434028442619
 20
346.4250244040524
 30
0.0
 41
1.0
 10
255.1110833245519
 20
349.8553734267294
 30
0.0
 41
1.0
 10
254.1162646717022
 20
350.850112823791
 30
0.0
 41
1.0
 10
252.232433843182
 20
352.7340229080993
 30
0.0
 41
1.0
 10
253.91122994776
 20
353.3552297756135
 30
0.0
 41
1.0
 10
251.2521982553517
 20
353.3446095000014
 30
0.0
 41
1.0
 10
248.1452128483237
 20
353.3319285738975
 30
0.0
 41
1.0
 10
245.5487139727652
 20
354.7536981575074
 30
0.0
 41
1.0
 10
245.98660220229
 20
358.4836340593887
 30
0.0
 41
1.0
 10
252.5915418192863
 20
358.4836340593887
 30
0.0
 41
1.0
 10
256.2109158966994
 20
356.2051094058852
 30
0.0
 41
1.0
 10
261.254516487155
 20
351.7422159751993
 30
0.0
 41
1.0
 10
265.1061892796335
 20
348.3339000616278
 30
0.0
 41
1.0
 10
266.9842344356189
 20
345.457469742326
 30
0.0
 41
1.0
 10
273.6652596092385
 20
347.4370415629305
 30
0.0
 41
1.0
 10
267.9331639871302
 20
352.8318245506756
 30
0.0
 41
1.0
 10
267.7537288827602
 20
355.2771033824452
 30
0.0
 41
1.0
 10
269.4437000534672
 20
362.8831228595551
 30
0.0
 41
1.0
 10
261.3399542267799
 20
359.6417988916141
 30
0.0
 41
1.0
 10
251.1754786524232
 20
358.6316046158634
 30
0.0
 41
1.0
 10
244.0625886891782
 20
362.2691282687626
 30
0.0
 41
1.0
  0
SPLINE
  5
2E9
330
1F
100
AcDbEntity
  8
templatesarea.com
100
AcDbSpline
210
0.0
220
0.0
230
1.0
 70
    13
 71
     3
 72
    50
 73
    46
 74
     0
 42
0.000000001
 43
0.0000000001
 40
0.0
 40
0.0
 40
0.0
 40
0.0
 40
1.0
 40
1.0
 40
1.0
 40
2.0
 40
2.0
 40
2.0
 40
3.0
 40
3.0
 40
3.0
 40
4.0
 40
4.0
 40
4.0
 40
5.0
 40
5.0
 40
5.0
 40
6.0
 40
6.0
 40
6.0
 40
7.0
 40
7.0
 40
7.0
 40
8.0
 40
8.0
 40
8.0
 40
9.0
 40
9.0
 40
9.0
 40
10.0
 40
10.0
 40
10.0
 40
11.0
 40
11.0
 40
11.0
 40
12.0
 40
12.0
 40
12.0
 40
13.0
 40
13.0
 40
13.0
 40
14.0
 40
14.0
 40
14.0
 40
15.0
 40
15.0
 40
15.0
 40
15.0
 10
296.7319434479924
 20
359.7052035221335
 30
0.0
 41
1.0
 10
296.7319434479924
 20
360.7874677279079
 30
0.0
 41
1.0
 10
296.7319434479924
 20
361.8697319336824
 30
0.0
 41
1.0
 10
296.7319434479924
 20
362.9519961394568
 30
0.0
 41
1.0
 10
296.7319434479924
 20
363.5942322094265
 30
0.0
 41
1.0
 10
296.7319434479924
 20
364.2364682793961
 30
0.0
 41
1.0
 10
296.7319434479924
 20
364.8787043493658
 30
0.0
 41
1.0
 10
290.8282590445409
 20
366.4611254155543
 30
0.0
 41
1.0
 10
286.848508898413
 20
367.7917508427924
 30
0.0
 41
1.0
 10
284.2423408167003
 20
373.8744740716733
 30
0.0
 41
1.0
 10
290.477314414616
 20
373.8744740716733
 30
0.0
 41
1.0
 10
292.4970689198121
 20
373.7850735426409
 30
0.0
 41
1.0
 10
296.9995109887844
 20
369.281759659999
 30
0.0
 41
1.0
 10
295.2805321996147
 20
376.7856976819725
 30
0.0
 41
1.0
 10
292.1087155578807
 20
387.4974344735
 30
0.0
 41
1.0
 10
286.0772708239324
 20
392.1201075730948
 30
0.0
 41
1.0
 10
286.4167233645758
 20
380.3564879612501
 30
0.0
 41
1.0
 10
283.470706463279
 20
374.996736031867
 30
0.0
 41
1.0
 10
276.8498364328646
 20
367.254158831776
 30
0.0
 41
1.0
 10
274.9747237410409
 20
365.0613889410499
 30
0.0
 41
1.0
 10
274.6537377990363
 20
364.8228290187205
 30
0.0
 41
1.0
 10
274.2398740668714
 20
361.0344262430109
 30
0.0
 41
1.0
 10
273.9931438628068
 20
358.4529234835778
 30
0.0
 41
1.0
 10
274.2108451232502
 20
356.4080259056169
 30
0.0
 41
1.0
 10
274.8214265459501
 20
355.2576334992026
 30
0.0
 41
1.0
 10
275.8006483093445
 20
353.1860979237028
 30
0.0
 41
1.0
 10
276.7878110516108
 20
351.4430213455909
 30
0.0
 41
1.0
 10
279.3962566061586
 20
349.3242367884408
 30
0.0
 41
1.0
 10
282.2298772729246
 20
347.0920981412597
 30
0.0
 41
1.0
 10
284.8499156886528
 20
345.365057493344
 30
0.0
 41
1.0
 10
289.5006453372523
 20
348.7642589912783
 30
0.0
 41
1.0
 10
293.4402127987885
 20
351.6440973094705
 30
0.0
 41
1.0
 10
296.4241414527846
 20
357.9864039717933
 30
0.0
 41
1.0
 10
289.8853885975587
 20
359.0265980929022
 30
0.0
 41
1.0
 10
286.9001905553876
 20
359.3837474687869
 30
0.0
 41
1.0
 10
283.6815986103657
 20
358.0322892624701
 30
0.0
 41
1.0
 10
286.3254999524159
 20
354.5118094920758
 30
0.0
 41
1.0
 10
289.1264787613996
 20
357.3127883010594
 30
0.0
 41
1.0
 10
291.4419220307473
 20
353.4437352746605
 30
0.0
 41
1.0
 10
287.6349640842183
 20
351.4813059206119
 30
0.0
 41
1.0
 10
283.2425160672037
 20
349.5713726596467
 30
0.0
 41
1.0
 10
280.73376633112
 20
352.2339188848774
 30
0.0
 41
1.0
 10
280.577848469352
 20
356.4804901839242
 30
0.0
 41
1.0
 10
280.0623905497074
 20
366.1739816950894
 30
0.0
 41
1.0
 10
291.4690420917278
 20
364.1065152054274
 30
0.0
 41
1.0
 10
296.7319434479924
 20
359.7052035221335
 30
0.0
 41
1.0
  0
SPLINE
  5
2EA
330
1F
100
AcDbEntity
  8
templatesarea.com
100
AcDbSpline
210
0.0
220
0.0
230
1.0
 70
    13
 71
     3
 72
   122
 73
   118
 74
     0
 42
0.000000001
 43
0.0000000001
 40
0.0
 40
0.0
 40
0.0
 40
0.0
 40
1.0
 40
1.0
 40
1.0
 40
2.0
 40
2.0
 40
2.0
 40
3.0
 40
3.0
 40
3.0
 40
4.0
 40
4.0
 40
4.0
 40
5.0
 40
5.0
 40
5.0
 40
6.0
 40
6.0
 40
6.0
 40
7.0
 40
7.0
 40
7.0
 40
8.0
 40
8.0
 40
8.0
 40
9.0
 40
9.0
 40
9.0
 40
10.0
 40
10.0
 40
10.0
 40
11.0
 40
11.0
 40
11.0
 40
12.0
 40
12.0
 40
12.0
 40
13.0
 40
13.0
 40
13.0
 40
14.0
 40
14.0
 40
14.0
 40
15.0
 40
15.0
 40
15.0
 40
16.0
 40
16.0
 40
16.0
 40
17.0
 40
17.0
 40
17.0
 40
18.0
 40
18.0
 40
18.0
 40
19.0
 40
19.0
 40
19.0
 40
20.0
 40
20.0
 40
20.0
 40
21.0
 40
21.0
 40
21.0
 40
22.0
 40
22.0
 40
22.0
 40
23.0
 40
23.0
 40
23.0
 40
24.0
 40
24.0
 40
24.0
 40
25.0
 40
25.0
 40
25.0
 40
26.0
 40
26.0
 40
26.0
 40
27.0
 40
27.0
 40
27.0
 40
28.0
 40
28.0
 40
28.0
 40
29.0
 40
29.0
 40
29.0
 40
30.0
 40
30.0
 40
30.0
 40
31.0
 40
31.0
 40
31.0
 40
32.0
 40
32.0
 40
32.0
 40
33.0
 40
33.0
 40
33.0
 40
34.0
 40
34.0
 40
34.0
 40
35.0
 40
35.0
 40
35.0
 40
36.0
 40
36.0
 40
36.0
 40
37.0
 40
37.0
 40
37.0
 40
38.0
 40
38.0
 40
38.0
 40
39.0
 40
39.0
 40
39.0
 40
39.0
 10
178.3314045086338
 20
378.4406377943176
 30
0.0
 41
1.0
 10
178.7055710844866
 20
378.3414888033428
 30
0.0
 41
1.0
 10
179.0797376603393
 20
378.2423398123681
 30
0.0
 41
1.0
 10
179.453904236192
 20
378.1431908213933
 30
0.0
 41
1.0
 10
181.3543787802236
 20
377.6400750782217
 30
0.0
 41
1.0
 10
182.446682052497
 20
375.624283362433
 30
0.0
 41
1.0
 10
183.9886826667293
 20
374.4401226316946
 30
0.0
 41
1.0
 10
185.4140980165941
 20
375.938057027716
 30
0.0
 41
1.0
 10
185.9075445536115
 20
377.0753775876581
 30
0.0
 41
1.0
 10
186.280522292642
 20
378.8924750425566
 30
0.0
 41
1.0
 10
186.7184105221667
 20
381.0287355563323
 30
0.0
 41
1.0
 10
186.1747950712508
 20
381.1770231359596
 30
0.0
 41
1.0
 10
187.9049489265496
 20
379.8633584473853
 30
0.0
 41
1.0
 10
191.6279103190737
 20
377.0382066230161
 30
0.0
 41
1.0
 10
192.1198509961163
 20
380.9318057274257
 30
0.0
 41
1.0
 10
191.3117589801463
 20
375.0534831761819
 30
0.0
 41
1.0
 10
190.8714138211889
 20
371.8508360328578
 30
0.0
 41
1.0
 10
187.5842007519094
 20
369.6018737883338
 30
0.0
 41
1.0
 10
187.6932567164028
 20
366.4058841312142
 30
0.0
 41
1.0
 10
187.7750486897729
 20
364.0071284470882
 30
0.0
 41
1.0
 10
188.0024335459732
 20
360.9609322295707
 30
0.0
 41
1.0
 10
187.5838837287568
 20
358.0088918883745
 30
0.0
 41
1.0
 10
186.7848268726358
 20
352.3715861888927
 30
0.0
 41
1.0
 10
187.0741104993807
 20
347.9338168430502
 30
0.0
 41
1.0
 10
192.680347929908
 20
347.024752952978
 30
0.0
 41
1.0
 10
198.9253077571303
 20
346.0121810035829
 30
0.0
 41
1.0
 10
204.287516615946
 20
351.738887232097
 30
0.0
 41
1.0
 10
203.0312331179918
 20
355.3130062544769
 30
0.0
 41
1.0
 10
201.8416829936593
 20
358.6977831989681
 30
0.0
 41
1.0
 10
196.3752527734273
 20
359.2712780820162
 30
0.0
 41
1.0
 10
194.3841888635412
 20
357.2802141721301
 30
0.0
 41
1.0
 10
191.9051470660199
 20
354.8011723746088
 30
0.0
 41
1.0
 10
191.5116420778588
 20
352.122723014104
 30
0.0
 41
1.0
 10
196.090486726607
 20
354.2038214993278
 30
0.0
 41
1.0
 10
200.5313470481874
 20
356.2217531213965
 30
0.0
 41
1.0
 10
198.8147459326621
 20
352.4793740607758
 30
0.0
 41
1.0
 10
195.9225437115186
 20
351.3079735119294
 30
0.0
 41
1.0
 10
194.9586348160471
 20
350.9177972668705
 30
0.0
 41
1.0
 10
192.2850200586194
 20
350.9371356791789
 30
0.0
 41
1.0
 10
191.5011010580349
 20
351.6824571109347
 30
0.0
 41
1.0
 10
189.2328004012026
 20
353.8393241296292
 30
0.0
 41
1.0
 10
190.0366918604007
 20
355.3335335036075
 30
0.0
 41
1.0
 10
190.68722336953
 20
356.9205514055087
 30
0.0
 41
1.0
 10
192.7208476376523
 20
361.8802201163142
 30
0.0
 41
1.0
 10
203.3078358186328
 20
362.9353524239455
 30
0.0
 41
1.0
 10
206.1891799967998
 20
358.102572229967
 30
0.0
 41
1.0
 10
207.4460975410592
 20
355.9942890094081
 30
0.0
 41
1.0
 10
208.227004821694
 20
352.9619625548167
 30
0.0
 41
1.0
 10
204.564119316587
 20
348.3206643450069
 30
0.0
 41
1.0
 10
196.5450186716431
 20
338.1579323979894
 30
0.0
 41
1.0
 10
181.8865021418579
 20
348.9200758707799
 30
0.0
 41
1.0
 10
174.9614483965266
 20
337.1118352502071
 30
0.0
 41
1.0
 10
173.859475918099
 20
335.2325220016114
 30
0.0
 41
1.0
 10
174.2101035248714
 20
333.2294112119266
 30
0.0
 41
1.0
 10
174.5894217269539
 20
331.4868934536766
 30
0.0
 41
1.0
 10
175.9112497617075
 20
325.4147112446197
 30
0.0
 41
1.0
 10
187.4697553938219
 20
324.9792006887394
 30
0.0
 41
1.0
 10
189.3300472532617
 20
330.8478540338289
 30
0.0
 41
1.0
 10
191.0118550777894
 20
336.1529987251771
 30
0.0
 41
1.0
 10
186.1198708100634
 20
336.371665444681
 30
0.0
 41
1.0
 10
183.3061318191877
 20
335.2732594767202
 30
0.0
 41
1.0
 10
182.4910652938605
 20
334.9552852546652
 30
0.0
 41
1.0
 10
184.665447841736
 20
331.2193259128846
 30
0.0
 41
1.0
 10
179.4584218161166
 20
329.6878663184761
 30
0.0
 41
1.0
 10
179.4584218161166
 20
329.6878663184761
 30
0.0
 41
1.0
 10
178.8689172638622
 20
330.6306931742999
 30
0.0
 41
1.0
 10
178.3981378822556
 20
331.6321693133542
 30
0.0
 41
1.0
 10
176.4412332170618
 20
335.7927019122505
 30
0.0
 41
1.0
 10
180.1738638157401
 20
339.3803736744039
 30
0.0
 41
1.0
 10
183.9995407097057
 20
339.3456596391945
 30
0.0
 41
1.0
 10
189.2156018951742
 20
339.2979476547286
 30
0.0
 41
1.0
 10
197.1821559525751
 20
340.4630869963111
 30
0.0
 41
1.0
 10
195.3587180346247
 20
332.9829257107823
 30
0.0
 41
1.0
 10
193.4190118754593
 20
325.0272296963578
 30
0.0
 41
1.0
 10
195.590382703385
 20
319.8350245031223
 30
0.0
 41
1.0
 10
199.5072830095105
 20
312.3681781900026
 30
0.0
 41
1.0
 10
193.740631863769
 20
316.6223911304914
 30
0.0
 41
1.0
 10
193.4763930660793
 20
317.9922481728635
 30
0.0
 41
1.0
 10
191.3002668908646
 20
324.9526499997094
 30
0.0
 41
1.0
 10
186.4837341334567
 20
323.250314926051
 30
0.0
 41
1.0
 10
182.0664920367449
 20
322.2549414826843
 30
0.0
 41
1.0
 10
176.8519367112513
 20
323.8542440317485
 30
0.0
 41
1.0
 10
179.5224604929412
 20
322.1897139690374
 30
0.0
 41
1.0
 10
180.7570279049425
 20
320.5362797166672
 30
0.0
 41
1.0
 10
181.3202195355313
 20
318.0206217450209
 30
0.0
 41
1.0
 10
175.0481542287619
 20
318.0206217450209
 30
0.0
 41
1.0
 10
175.4977723149328
 20
320.085393537886
 30
0.0
 41
1.0
 10
172.689818996592
 20
325.3258655061043
 30
0.0
 41
1.0
 10
171.0491449261138
 20
317.9807560835819
 30
0.0
 41
1.0
 10
170.350584409366
 20
314.6107999714746
 30
0.0
 41
1.0
 10
178.6726799324047
 20
313.6103541576663
 30
0.0
 41
1.0
 10
185.6915725309047
 20
312.7662800138764
 30
0.0
 41
1.0
 10
189.6486555216218
 20
312.492609777397
 30
0.0
 41
1.0
 10
193.2734982484172
 20
304.892375972822
 30
0.0
 41
1.0
 10
180.2043772941776
 20
310.7145061702679
 30
0.0
 41
1.0
 10
175.5868558208125
 20
309.461551415416
 30
0.0
 41
1.0
 10
161.9325101268787
 20
304.8128824173083
 30
0.0
 41
1.0
 10
158.3671884969834
 20
309.7571755052128
 30
0.0
 41
1.0
 10
152.1092307205046
 20
313.8126149290232
 30
0.0
 41
1.0
 10
154.8111397943016
 20
317.3964031575573
 30
0.0
 41
1.0
 10
157.7725323184994
 20
321.3244785298118
 30
0.0
 41
1.0
 10
162.1762216754377
 20
320.5915210010072
 30
0.0
 41
1.0
 10
165.2139375236232
 20
317.5531711065165
 30
0.0
 41
1.0
 10
164.5341606286669
 20
315.3377340603797
 30
0.0
 41
1.0
 10
160.3114122360734
 20
316.0305089045926
 30
0.0
 41
1.0
 10
159.4226378277673
 20
315.4062903171289
 30
0.0
 41
1.0
 10
158.7310518203767
 20
314.9210071262908
 30
0.0
 41
1.0
 10
159.1557043332806
 20
313.5933934190023
 30
0.0
 41
1.0
 10
160.1876146949841
 20
312.800042979628
 30
0.0
 41
1.0
 10
164.0358794885723
 20
309.8422962216852
 30
0.0
 41
1.0
 10
177.2895079176235
 20
323.6072037400872
 30
0.0
 41
1.0
 10
157.3134827935388
 20
329.8995585286228
 30
0.0
 41
1.0
 10
156.1106176967972
 20
330.2783219401882
 30
0.0
 41
1.0
 10
155.341757295961
 20
331.1235849208003
 30
0.0
 41
1.0
 10
155.1738935366609
 20
332.7908889360966
 30
0.0
 41
1.0
 10
180.5993881423136
 20
336.1327884991991
 30
0.0
 41
1.0
 10
191.1908939032186
 20
358.634061545296
 30
0.0
 41
1.0
 10
178.3314045086339
 20
378.4406377943176
 30
0.0
 41
1.0
  0
SPLINE
  5
2EB
330
1F
100
AcDbEntity
  8
templatesarea.com
100
AcDbSpline
210
0.0
220
0.0
230
1.0
 70
     9
 71
     3
 72
    38
 73
    34
 74
     0
 42
0.000000001
 43
0.0000000001
 40
0.0
 40
0.0
 40
0.0
 40
0.0
 40
1.0
 40
1.0
 40
1.0
 40
2.0
 40
2.0
 40
2.0
 40
3.0
 40
3.0
 40
3.0
 40
4.0
 40
4.0
 40
4.0
 40
5.0
 40
5.0
 40
5.0
 40
6.0
 40
6.0
 40
6.0
 40
7.0
 40
7.0
 40
7.0
 40
8.0
 40
8.0
 40
8.0
 40
9.0
 40
9.0
 40
9.0
 40
10.0
 40
10.0
 40
10.0
 40
11.0
 40
11.0
 40
11.0
 40
11.0
 10
127.2989195424666
 20
374.3338406197864
 30
0.0
 10
124.5691916870292
 20
369.9295172165429
 30
0.0
 10
123.206229898226
 20
363.6202809451315
 30
0.0
 10
123.7438219092426
 20
358.5996645332393
 30
0.0
 10
124.4951667808977
 20
351.5818815157733
 30
0.0
 10
127.3179409316224
 20
346.4820885715199
 30
0.0
 10
133.2838411287711
 20
339.8741372345739
 30
0.0
 10
127.8192337916666
 20
341.6082538792801
 30
0.0
 10
126.5357655583772
 20
341.6097597392549
 30
0.0
 10
121.82369192975
 20
344.8748604436407
 30
0.0
 10
119.0175614945367
 20
346.8197182290359
 30
0.0
 10
116.3751735176398
 20
348.7700446638133
 30
0.0
 10
113.5515275532455
 20
351.802608885769
 30
0.0
 10
112.0035034991138
 20
353.4648405306239
 30
0.0
 10
122.0378410693294
 20
356.1492340752399
 30
0.0
 10
119.8193923032429
 20
363.4484543964239
 30
0.0
 10
113.6786538374369
 20
363.4484543964239
 30
0.0
 10
114.1138473701646
 20
362.1634803031597
 30
0.0
 10
110.3110753989741
 20
357.4762137362232
 30
0.0
 10
110.3410340868945
 20
364.6533801436574
 30
0.0
 10
110.2326121687063
 20
366.1422001240416
 30
0.0
 10
112.9251690595017
 20
370.5836944919271
 30
0.0
 10
114.5130587750725
 20
373.2025434997437
 30
0.0
 10
115.946320447964
 20
373.7069273355257
 30
0.0
 10
118.3942939765308
 20
371.3302047605051
 30
0.0
 10
119.5699743379372
 20
370.1886836437911
 30
0.0
 10
120.6411163147746
 20
369.7733833138889
 30
0.0
 10
122.4875384112884
 20
369.1579621189098
 30
0.0
 10
122.9993722911564
 20
370.732853885224
 30
0.0
 10
123.3258268825433
 20
372.2334829780424
 30
0.0
 10
122.3202294425053
 20
373.4390427715811
 30
0.0
 10
116.5551634125268
 20
380.3498304750456
 30
0.0
 10
127.9620527219116
 20
375.4037937598017
 30
0.0
 10
127.2989195424666
 20
374.3338406197864
 30
0.0
  0
SPLINE
  5
2EC
330
1F
100
AcDbEntity
  8
templatesarea.com
100
AcDbSpline
210
0.0
220
0.0
230
1.0
 70
     9
 71
     3
 72
    11
 73
     7
 74
     0
 42
0.000000001
 43
0.0000000001
 40
0.0
 40
0.0
 40
0.0
 40
0.0
 40
1.0
 40
1.0
 40
1.0
 40
2.0
 40
2.0
 40
2.0
 40
2.0
 10
148.3043980988222
 20
389.5160001418739
 30
0.0
 10
153.1369405254363
 20
402.7252453295615
 30
0.0
 10
166.0843245890786
 20
398.9364223770853
 30
0.0
 10
168.9082875766255
 20
386.2287870725945
 30
0.0
 10
162.7702438076165
 20
390.4035857133577
 30
0.0
 10
155.7775848749939
 20
390.6067975541725
 30
0.0
 10
148.3043980988222
 20
389.5160001418739
 30
0.0
  0
SPLINE
  5
2ED
330
1F
100
AcDbEntity
  8
templatesarea.com
100
AcDbSpline
210
0.0
220
0.0
230
1.0
 70
    13
 71
     3
 72
    74
 73
    70
 74
     0
 42
0.000000001
 43
0.0000000001
 40
0.0
 40
0.0
 40
0.0
 40
0.0
 40
1.0
 40
1.0
 40
1.0
 40
2.0
 40
2.0
 40
2.0
 40
3.0
 40
3.0
 40
3.0
 40
4.0
 40
4.0
 40
4.0
 40
5.0
 40
5.0
 40
5.0
 40
6.0
 40
6.0
 40
6.0
 40
7.0
 40
7.0
 40
7.0
 40
8.0
 40
8.0
 40
8.0
 40
9.0
 40
9.0
 40
9.0
 40
10.0
 40
10.0
 40
10.0
 40
11.0
 40
11.0
 40
11.0
 40
12.0
 40
12.0
 40
12.0
 40
13.0
 40
13.0
 40
13.0
 40
14.0
 40
14.0
 40
14.0
 40
15.0
 40
15.0
 40
15.0
 40
16.0
 40
16.0
 40
16.0
 40
17.0
 40
17.0
 40
17.0
 40
18.0
 40
18.0
 40
18.0
 40
19.0
 40
19.0
 40
19.0
 40
20.0
 40
20.0
 40
20.0
 40
21.0
 40
21.0
 40
21.0
 40
22.0
 40
22.0
 40
22.0
 40
23.0
 40
23.0
 40
23.0
 40
23.0
 10
228.609849906349
 20
381.1975503850902
 30
0.0
 41
1.0
 10
228.609849906349
 20
384.6729166954359
 30
0.0
 41
1.0
 10
228.609849906349
 20
388.1482830057818
 30
0.0
 41
1.0
 10
228.609849906349
 20
391.6236493161276
 30
0.0
 41
1.0
 10
227.2651697860123
 20
390.5685698456885
 30
0.0
 41
1.0
 10
225.9204896656755
 20
389.5134903752492
 30
0.0
 41
1.0
 10
224.5758095453389
 20
388.45841090481
 30
0.0
 41
1.0
 10
218.1300155509463
 20
384.661741629307
 30
0.0
 41
1.0
 10
213.7121394079292
 20
385.6395995434927
 30
0.0
 41
1.0
 10
206.7708382260273
 20
387.6910563639487
 30
0.0
 41
1.0
 10
200.2640172747598
 20
389.6138810402383
 30
0.0
 41
1.0
 10
194.5931863768908
 20
384.3618377269501
 30
0.0
 41
1.0
 10
195.7763960381714
 20
377.8442379884943
 30
0.0
 41
1.0
 10
196.5126823100782
 20
373.7929991214558
 30
0.0
 41
1.0
 10
199.924326966752
 20
370.1530185391239
 30
0.0
 41
1.0
 10
205.0657291997838
 20
372.7414333242912
 30
0.0
 41
1.0
 10
207.1685437709604
 20
373.8002113981774
 30
0.0
 41
1.0
 10
208.5486248100038
 20
375.6121572268462
 30
0.0
 41
1.0
 10
205.8959335806475
 20
375.6121572268462
 30
0.0
 41
1.0
 10
200.3477113870454
 20
375.6121572268462
 30
0.0
 41
1.0
 10
200.5681217338886
 20
378.0205821171264
 30
0.0
 41
1.0
 10
201.179421627884
 20
381.8181232062991
 30
0.0
 41
1.0
 10
212.9831446685322
 20
378.4457894205473
 30
0.0
 41
1.0
 10
216.954969235845
 20
369.060398243698
 30
0.0
 41
1.0
 10
200.6828841151287
 20
365.8067103728057
 30
0.0
 41
1.0
 10
207.0649564558493
 20
363.5094813532989
 30
0.0
 41
1.0
 10
210.550308995502
 20
363.2581612490775
 30
0.0
 41
1.0
 10
211.3511887347504
 20
356.1600921182164
 30
0.0
 41
1.0
 10
211.4795038557641
 20
355.021582721452
 30
0.0
 41
1.0
 10
211.233097610408
 20
353.3947784138999
 30
0.0
 41
1.0
 10
211.233097610408
 20
353.3947784138999
 30
0.0
 41
1.0
 10
219.6113062314563
 20
358.6310498253464
 30
0.0
 41
1.0
 10
220.1147389977805
 20
357.7555903894495
 30
0.0
 41
1.0
 10
229.8274565796863
 20
357.7555903894495
 30
0.0
 41
1.0
 10
232.4759472522707
 20
357.7555903894495
 30
0.0
 41
1.0
 10
236.8660838694355
 20
363.0150837468237
 30
0.0
 41
1.0
 10
238.7976266824216
 20
364.5751546807541
 30
0.0
 41
1.0
 10
238.7976266824216
 20
364.5751546807541
 30
0.0
 41
1.0
 10
238.0978773288516
 20
365.8003699097538
 30
0.0
 41
1.0
 10
237.3543787802233
 20
366.8706400729216
 30
0.0
 41
1.0
 10
235.2250135200166
 20
369.9343518196201
 30
0.0
 41
1.0
 10
232.6507855209281
 20
371.0161140720696
 30
0.0
 41
1.0
 10
229.5943653067393
 20
371.3649187957145
 30
0.0
 41
1.0
 10
226.6501712885699
 20
371.7010425932556
 30
0.0
 41
1.0
 10
219.4147518768461
 20
368.1127367847971
 30
0.0
 41
1.0
 10
223.898410324027
 20
365.8197083220622
 30
0.0
 41
1.0
 10
226.6888481131868
 20
364.3912812522477
 30
0.0
 41
1.0
 10
227.3369226928835
 20
368.4186641270533
 30
0.0
 41
1.0
 10
231.2163350112143
 20
368.5373892977009
 30
0.0
 41
1.0
 10
231.2163350112143
 20
367.2810265439585
 30
0.0
 41
1.0
 10
231.1583990300772
 20
365.7197667732059
 30
0.0
 41
1.0
 10
230.4643560932539
 20
364.4428767703329
 30
0.0
 41
1.0
 10
228.2800665718598
 20
360.4239742648593
 30
0.0
 41
1.0
 10
222.7203522889761
 20
359.4708441565761
 30
0.0
 41
1.0
 10
219.5150104488549
 20
363.6257495945139
 30
0.0
 41
1.0
 10
218.5908879590343
 20
364.8237008323902
 30
0.0
 41
1.0
 10
217.9781614608522
 20
366.1790540655311
 30
0.0
 41
1.0
 10
217.9621517916461
 20
367.4175842669397
 30
0.0
 41
1.0
 10
217.9352048236753
 20
369.5046269362747
 30
0.0
 41
1.0
 10
219.3153651185069
 20
371.8001123284422
 30
0.0
 41
1.0
 10
221.5842205658562
 20
373.2330569781812
 30
0.0
 41
1.0
 10
225.3663860321279
 20
375.6212716424834
 30
0.0
 41
1.0
 10
230.7385811202504
 20
376.4967310783803
 30
0.0
 41
1.0
 10
229.7268809845249
 20
376.4810384323267
 30
0.0
 41
1.0
 10
222.1710304213135
 20
376.3632643311368
 30
0.0
 41
1.0
 10
219.2014745509364
 20
375.5949587208178
 30
0.0
 41
1.0
 10
212.9707807655809
 20
379.9563254868843
 30
0.0
 41
1.0
 10
221.5211329584894
 20
388.5067569355811
 30
0.0
 41
1.0
 10
228.609849906349
 20
376.4810384323267
 30
0.0
 41
1.0
 10
228.609849906349
 20
381.1975503850902
 30
0.0
 41
1.0
  0
SPLINE
  5
2EE
330
1F
100
AcDbEntity
  8
templatesarea.com
100
AcDbSpline
210
0.0
220
0.0
230
1.0
 70
     9
 71
     3
 72
    32
 73
    28
 74
     0
 42
0.000000001
 43
0.0000000001
 40
0.0
 40
0.0
 40
0.0
 40
0.0
 40
1.0
 40
1.0
 40
1.0
 40
2.0
 40
2.0
 40
2.0
 40
3.0
 40
3.0
 40
3.0
 40
4.0
 40
4.0
 40
4.0
 40
5.0
 40
5.0
 40
5.0
 40
6.0
 40
6.0
 40
6.0
 40
7.0
 40
7.0
 40
7.0
 40
8.0
 40
8.0
 40
8.0
 40
9.0
 40
9.0
 40
9.0
 40
9.0
 10
192.7392349805029
 20
423.0259021619056
 30
0.0
 10
189.1545749382992
 20
414.7156157513012
 30
0.0
 10
186.9010951138508
 20
408.8070967447725
 30
0.0
 10
185.7885816155994
 20
399.6914130149952
 30
0.0
 10
190.3507825488363
 20
404.2532969250795
 30
0.0
 10
191.8679761013779
 20
404.3662364231923
 30
0.0
 10
197.9522844460217
 20
405.5250353017228
 30
0.0
 10
195.4037353222935
 20
397.0292903468492
 30
0.0
 10
193.5929783304469
 20
395.7352810937359
 30
0.0
 10
185.0438149743607
 20
393.4854470355423
 30
0.0
 10
188.6432958489482
 20
390.2948467720169
 30
0.0
 10
192.664972307007
 20
391.0600614065982
 30
0.0
 10
197.4059742983087
 20
391.4590350441417
 30
0.0
 10
200.3839312822296
 20
391.7097211020578
 30
0.0
 10
202.8185898383874
 20
391.2436970677401
 30
0.0
 10
205.7566811608692
 20
390.7756123829305
 30
0.0
 10
208.2825631291866
 20
390.3727552117676
 30
0.0
 10
209.9436059372192
 20
390.1945882000081
 30
0.0
 10
212.5195775636471
 20
390.7707777798533
 30
0.0
 10
215.1152046255359
 20
391.3512471722587
 30
0.0
 10
217.5386881155645
 20
392.305486861576
 30
0.0
 10
216.818490768652
 20
392.8647949585453
 30
0.0
 10
206.9885538760734
 20
400.496176287863
 30
0.0
 10
210.5007741279087
 20
409.5747683087865
 30
0.0
 10
209.9918727122021
 20
421.5364481352162
 30
0.0
 10
204.2222891022992
 20
421.5364481352162
 30
0.0
 10
197.9691659288975
 20
420.53291134567
 30
0.0
 10
192.7392349805029
 20
423.0259021619056
 30
0.0
  0
LWPOLYLINE
  5
2EF
330
1F
100
AcDbEntity
  8
templatesarea.com
100
AcDbPolyline
 90
        4
 70
     0
 43
0.0
 10
219.5490904377591
 20
404.283810403517
 10
223.1485713123467
 20
400.1878712719623
 10
223.1485713123467
 20
406.1456081229316
 10
219.5490904377591
 20
404.283810403517
  0
SPLINE
  5
2F0
330
1F
100
AcDbEntity
  8
templatesarea.com
100
AcDbSpline
210
0.0
220
0.0
230
1.0
 70
    13
 71
     3
 72
    17
 73
    13
 74
     0
 42
0.000000001
 43
0.0000000001
 40
0.0
 40
0.0
 40
0.0
 40
0.0
 40
1.0
 40
1.0
 40
1.0
 40
2.0
 40
2.0
 40
2.0
 40
3.0
 40
3.0
 40
3.0
 40
4.0
 40
4.0
 40
4.0
 40
4.0
 10
231.8369870882113
 20
438.4167421741901
 30
0.0
 41
1.0
 10
230.6785316514293
 20
436.5963159761894
 30
0.0
 41
1.0
 10
229.5200762146473
 20
434.7758897781885
 30
0.0
 41
1.0
 10
228.3616207778654
 20
432.9554635801878
 30
0.0
 41
1.0
 10
224.102256211147
 20
426.2617574804642
 30
0.0
 41
1.0
 10
227.6017955368783
 20
423.4372397024003
 30
0.0
 41
1.0
 10
223.2561214168653
 20
419.6136234589266
 30
0.0
 41
1.0
 10
218.6065806050879
 20
420.4199718475573
 30
0.0
 41
1.0
 10
219.5677948037623
 20
424.1747148111294
 30
0.0
 41
1.0
 10
215.701380434688
 20
425.011814445562
 30
0.0
 41
1.0
 10
215.1001460257876
 20
400.3391705715392
 30
0.0
 41
1.0
 10
235.6182014850252
 20
420.3807402324234
 30
0.0
 41
1.0
 10
231.8369870882113
 20
438.4167421741901
 30
0.0
 41
1.0
  0
SPLINE
  5
2F1
330
1F
100
AcDbEntity
  8
templatesarea.com
100
AcDbSpline
210
0.0
220
0.0
230
1.0
 70
     9
 71
     3
 72
    23
 73
    19
 74
     0
 42
0.000000001
 43
0.0000000001
 40
0.0
 40
0.0
 40
0.0
 40
0.0
 40
1.0
 40
1.0
 40
1.0
 40
2.0
 40
2.0
 40
2.0
 40
3.0
 40
3.0
 40
3.0
 40
4.0
 40
4.0
 40
4.0
 40
5.0
 40
5.0
 40
5.0
 40
6.0
 40
6.0
 40
6.0
 40
6.0
 10
238.5394113246312
 20
432.4590053232207
 30
0.0
 10
241.9038987873562
 20
427.0964794412525
 30
0.0
 10
244.3721617976891
 20
421.6587398163305
 30
0.0
 10
248.5930873071553
 20
416.4475132339393
 30
0.0
 10
244.4125822496453
 20
414.8662810045729
 30
0.0
 10
239.7624866473509
 20
413.4019510627269
 30
0.0
 10
236.3426786444977
 20
409.7275734683383
 30
0.0
 10
234.3066767027309
 20
407.5396381806893
 30
0.0
 10
233.1240218319674
 20
405.244786834827
 30
0.0
 10
231.2163350112143
 20
402.1737835556187
 30
0.0
 10
231.0575064117631
 20
402.6995664542011
 30
0.0
 10
230.2502862094627
 20
404.9285562401114
 30
0.0
 10
229.5671805714041
 20
406.943793165383
 30
0.0
 10
228.0750318479176
 20
411.3456596391939
 30
0.0
 10
229.2920044749498
 20
410.7915031684542
 30
0.0
 10
231.8061565866212
 20
414.0638954053497
 30
0.0
 10
235.2787489443818
 20
418.5832189571979
 30
0.0
 10
237.8463194572658
 20
424.4953837299813
 30
0.0
 10
238.5394113246312
 20
432.4590053232207
 30
0.0
  0
SPLINE
  5
2F2
330
1F
100
AcDbEntity
  8
templatesarea.com
100
AcDbSpline
210
0.0
220
0.0
230
1.0
 70
    13
 71
     3
 72
    35
 73
    31
 74
     0
 42
0.000000001
 43
0.0000000001
 40
0.0
 40
0.0
 40
0.0
 40
0.0
 40
1.0
 40
1.0
 40
1.0
 40
2.0
 40
2.0
 40
2.0
 40
3.0
 40
3.0
 40
3.0
 40
4.0
 40
4.0
 40
4.0
 40
5.0
 40
5.0
 40
5.0
 40
6.0
 40
6.0
 40
6.0
 40
7.0
 40
7.0
 40
7.0
 40
8.0
 40
8.0
 40
8.0
 40
9.0
 40
9.0
 40
9.0
 40
10.0
 40
10.0
 40
10.0
 40
10.0
 10
244.0006899186335
 20
439.533773252366
 30
0.0
 41
1.0
 10
253.6578491930467
 20
443.0746840995113
 30
0.0
 41
1.0
 10
263.1963625526004
 20
435.0866517235218
 30
0.0
 41
1.0
 10
267.4306030344756
 20
426.8935053678021
 30
0.0
 41
1.0
 10
268.5072136606954
 20
424.8103462320866
 30
0.0
 41
1.0
 10
268.3245290690113
 20
423.1367017537382
 30
0.0
 41
1.0
 10
267.8569991747187
 20
421.816696602112
 30
0.0
 41
1.0
 10
267.3590350577768
 20
420.4112537108609
 30
0.0
 41
1.0
 10
266.4675659526737
 20
419.4043881782125
 30
0.0
 41
1.0
 10
264.0479659962644
 20
418.7261171432309
 30
0.0
 41
1.0
 10
260.402913043491
 20
417.7038759876816
 30
0.0
 41
1.0
 10
257.5909969357428
 20
417.9753270620929
 30
0.0
 41
1.0
 10
252.9373348229816
 20
418.9299630303509
 30
0.0
 41
1.0
 10
252.9373348229816
 20
420.6262482455138
 30
0.0
 41
1.0
 10
252.9373348229816
 20
422.3225334606767
 30
0.0
 41
1.0
 10
252.9373348229816
 20
424.0188186758397
 30
0.0
 41
1.0
 10
252.9373348229816
 20
424.6476340990161
 30
0.0
 41
1.0
 10
258.2122038032569
 20
426.475589596891
 30
0.0
 41
1.0
 10
258.2122038032569
 20
430.2248639110807
 30
0.0
 41
1.0
 10
254.4695869752716
 20
430.2248639110807
 30
0.0
 41
1.0
 10
252.357737244246
 20
428.7559371335221
 30
0.0
 41
1.0
 10
249.0397729291646
 20
427.096796464405
 30
0.0
 41
1.0
 10
249.0397729291646
 20
432.5614038015096
 30
0.0
 41
1.0
 10
246.744287536997
 20
432.3463828482606
 30
0.0
 41
1.0
 10
243.302763448191
 20
434.0562472217931
 30
0.0
 41
1.0
 10
240.9834220637905
 20
435.208309358331
 30
0.0
 41
1.0
 10
240.9323813362224
 20
435.7652397816559
 30
0.0
 41
1.0
 10
240.2770944798041
 20
438.1685130457066
 30
0.0
 41
1.0
 10
241.518292959414
 20
438.6235997812598
 30
0.0
 41
1.0
 10
242.7594914390237
 20
439.078686516813
 30
0.0
 41
1.0
 10
244.0006899186335
 20
439.5337732523661
 30
0.0
 41
1.0
  0
SPLINE
  5
2F3
330
1F
100
AcDbEntity
  8
templatesarea.com
100
AcDbSpline
210
0.0
220
0.0
230
1.0
 70
    13
 71
     3
 72
    41
 73
    37
 74
     0
 42
0.000000001
 43
0.0000000001
 40
0.0
 40
0.0
 40
0.0
 40
0.0
 40
1.0
 40
1.0
 40
1.0
 40
2.0
 40
2.0
 40
2.0
 40
3.0
 40
3.0
 40
3.0
 40
4.0
 40
4.0
 40
4.0
 40
5.0
 40
5.0
 40
5.0
 40
6.0
 40
6.0
 40
6.0
 40
7.0
 40
7.0
 40
7.0
 40
8.0
 40
8.0
 40
8.0
 40
9.0
 40
9.0
 40
9.0
 40
10.0
 40
10.0
 40
10.0
 40
11.0
 40
11.0
 40
11.0
 40
12.0
 40
12.0
 40
12.0
 40
12.0
 10
272.9205722237879
 20
429.4800972698419
 30
0.0
 41
1.0
 10
273.6239145064207
 20
431.1764089036009
 30
0.0
 41
1.0
 10
274.3272567890534
 20
432.8727205373598
 30
0.0
 41
1.0
 10
275.0305990716862
 20
434.5690321711188
 30
0.0
 41
1.0
 10
275.3329863220717
 20
435.2983439336687
 30
0.0
 41
1.0
 10
275.6353735724573
 20
436.0276556962183
 30
0.0
 41
1.0
 10
275.9377608228428
 20
436.7569674587681
 30
0.0
 41
1.0
 10
270.5930674932081
 20
437.6016756488629
 30
0.0
 41
1.0
 10
269.0616871545877
 20
438.4988511707128
 30
0.0
 41
1.0
 10
266.4663771158515
 20
443.2573686911954
 30
0.0
 41
1.0
 10
269.925099710686
 20
443.2573686911954
 30
0.0
 41
1.0
 10
272.6415125937143
 20
444.4125218034711
 30
0.0
 41
1.0
 10
275.1543966127753
 20
441.9920500333922
 30
0.0
 41
1.0
 10
275.9604279782534
 20
441.2165321463515
 30
0.0
 41
1.0
 10
276.9542955616454
 20
440.4645532283912
 30
0.0
 41
1.0
 10
276.9542955616454
 20
440.4645532283912
 30
0.0
 41
1.0
 10
275.2631355541161
 20
450.0501445261056
 30
0.0
 41
1.0
 10
272.5853202399164
 20
453.3111239295076
 30
0.0
 41
1.0
 10
262.3703587285086
 20
453.3111239295076
 30
0.0
 41
1.0
 10
260.1217135071373
 20
444.6372119628743
 30
0.0
 41
1.0
 10
247.9710086259716
 20
448.1956383392005
 30
0.0
 41
1.0
 10
251.0011951742829
 20
449.0297262536836
 30
0.0
 41
1.0
 10
251.4125327147777
 20
449.1429827749489
 30
0.0
 41
1.0
 10
251.7924057073772
 20
449.3978693896369
 30
0.0
 41
1.0
 10
252.146996103557
 20
449.6751061365832
 30
0.0
 41
1.0
 10
253.7294171697455
 20
450.914191128509
 30
0.0
 41
1.0
 10
255.8355604840244
 20
451.5419762264394
 30
0.0
 41
1.0
 10
257.7157455462897
 20
452.2559123660881
 30
0.0
 41
1.0
 10
259.5959306085551
 20
452.9698485057368
 30
0.0
 41
1.0
 10
243.8143595606945
 20
457.024099092725
 30
0.0
 41
1.0
 10
243.8143595606945
 20
444.0021353324342
 30
0.0
 41
1.0
 10
254.0603893410569
 20
444.0021353324342
 30
0.0
 41
1.0
 10
258.4891235270504
 20
444.2135105194283
 30
0.0
 41
1.0
 10
264.888711396952
 20
439.1055542289954
 30
0.0
 41
1.0
 10
268.4736884623082
 20
436.2450543231117
 30
0.0
 41
1.0
 10
270.4445421462163
 20
433.2770835684975
 30
0.0
 41
1.0
 10
272.9205722237879
 20
429.4800972698419
 30
0.0
 41
1.0
  0
SPLINE
  5
2F4
330
1F
100
AcDbEntity
  8
templatesarea.com
100
AcDbSpline
210
0.0
220
0.0
230
1.0
 70
    13
 71
     3
 72
    50
 73
    46
 74
     0
 42
0.000000001
 43
0.0000000001
 40
0.0
 40
0.0
 40
0.0
 40
0.0
 40
1.0
 40
1.0
 40
1.0
 40
2.0
 40
2.0
 40
2.0
 40
3.0
 40
3.0
 40
3.0
 40
4.0
 40
4.0
 40
4.0
 40
5.0
 40
5.0
 40
5.0
 40
6.0
 40
6.0
 40
6.0
 40
7.0
 40
7.0
 40
7.0
 40
8.0
 40
8.0
 40
8.0
 40
9.0
 40
9.0
 40
9.0
 40
10.0
 40
10.0
 40
10.0
 40
11.0
 40
11.0
 40
11.0
 40
12.0
 40
12.0
 40
12.0
 40
13.0
 40
13.0
 40
13.0
 40
14.0
 40
14.0
 40
14.0
 40
15.0
 40
15.0
 40
15.0
 40
15.0
 10
218.1837509753115
 20
478.1350671031073
 30
0.0
 41
1.0
 10
220.3636550097614
 20
476.7336134198597
 30
0.0
 41
1.0
 10
222.5435590442112
 20
475.332159736612
 30
0.0
 41
1.0
 10
224.723463078661
 20
473.9307060533644
 30
0.0
 41
1.0
 10
225.2199213356281
 20
476.2886450065935
 30
0.0
 41
1.0
 10
223.4351602422945
 20
477.5289188353416
 30
0.0
 41
1.0
 10
226.0567832026963
 20
481.8586625419365
 30
0.0
 41
1.0
 10
231.7605845084353
 20
476.1539894225279
 30
0.0
 41
1.0
 10
228.5898774477353
 20
474.5823471435278
 30
0.0
 41
1.0
 10
229.7553338124705
 20
466.6571646075407
 30
0.0
 41
1.0
 10
230.9892671781666
 20
463.8404138967153
 30
0.0
 41
1.0
 10
232.0501851583328
 20
461.0759720060686
 30
0.0
 41
1.0
 10
233.0446075322418
 20
458.1575361190477
 30
0.0
 41
1.0
 10
241.8239296971136
 20
472.6538160504913
 30
0.0
 41
1.0
 10
242.5312083505577
 20
496.4917379637259
 30
0.0
 41
1.0
 10
226.7704023191924
 20
502.7351919309735
 30
0.0
 41
1.0
 10
211.6507756139547
 20
508.7246310972025
 30
0.0
 41
1.0
 10
199.7303880531507
 20
496.2631642707034
 30
0.0
 41
1.0
 10
199.4659114880965
 20
480.5050529361351
 30
0.0
 41
1.0
 10
204.5952668413297
 20
481.3856639982618
 30
0.0
 41
1.0
 10
208.358093895293
 20
480.6298015466821
 30
0.0
 41
1.0
 10
213.5074217071397
 20
480.4319790994615
 30
0.0
 41
1.0
 10
217.3584604533131
 20
483.8197677639024
 30
0.0
 41
1.0
 10
221.8892760944428
 20
486.998241891841
 30
0.0
 41
1.0
 10
222.5104829619569
 20
491.3970966457022
 30
0.0
 41
1.0
 10
223.9035619502567
 20
501.2620645966428
 30
0.0
 41
1.0
 10
210.2210804515298
 20
496.6219552236552
 30
0.0
 41
1.0
 10
214.5278399795616
 20
494.1486198428807
 30
0.0
 41
1.0
 10
215.3480581311185
 20
493.6777612054858
 30
0.0
 41
1.0
 10
217.2228537997896
 20
493.8937332281926
 30
0.0
 41
1.0
 10
217.8110902594336
 20
493.9142604773232
 30
0.0
 41
1.0
 10
218.8614672197759
 20
493.9513521861772
 30
0.0
 41
1.0
 10
214.1111130454727
 20
490.5149797236007
 30
0.0
 41
1.0
 10
211.1316502015769
 20
493.0381669951212
 30
0.0
 41
1.0
 10
208.551398762589
 20
495.2230905628204
 30
0.0
 41
1.0
 10
210.4330896848292
 20
498.8319236204096
 30
0.0
 41
1.0
 10
214.2929258234871
 20
500.6731940906937
 30
0.0
 41
1.0
 10
217.5042911035077
 20
502.2055254987717
 30
0.0
 41
1.0
 10
222.553043320193
 20
502.0490745729651
 30
0.0
 41
1.0
 10
225.4841601333178
 20
500.8845692776878
 30
0.0
 41
1.0
 10
229.5139999375559
 20
499.2836816128606
 30
0.0
 41
1.0
 10
230.2191386847201
 20
494.9790619911088
 30
0.0
 41
1.0
 10
228.9577035605362
 20
490.516168560423
 30
0.0
 41
1.0
 10
227.4350413586122
 20
485.1301037093743
 30
0.0
 41
1.0
 10
223.0476786940327
 20
479.5118193990483
 30
0.0
 41
1.0
 10
218.1837509753115
 20
478.1350671031073
 30
0.0
 41
1.0
  0
SPLINE
  5
2F5
330
1F
100
AcDbEntity
  8
templatesarea.com
100
AcDbSpline
210
0.0
220
0.0
230
1.0
 70
    13
 71
     3
 72
    56
 73
    52
 74
     0
 42
0.000000001
 43
0.0000000001
 40
0.0
 40
0.0
 40
0.0
 40
0.0
 40
1.0
 40
1.0
 40
1.0
 40
2.0
 40
2.0
 40
2.0
 40
3.0
 40
3.0
 40
3.0
 40
4.0
 40
4.0
 40
4.0
 40
5.0
 40
5.0
 40
5.0
 40
6.0
 40
6.0
 40
6.0
 40
7.0
 40
7.0
 40
7.0
 40
8.0
 40
8.0
 40
8.0
 40
9.0
 40
9.0
 40
9.0
 40
10.0
 40
10.0
 40
10.0
 40
11.0
 40
11.0
 40
11.0
 40
12.0
 40
12.0
 40
12.0
 40
13.0
 40
13.0
 40
13.0
 40
14.0
 40
14.0
 40
14.0
 40
15.0
 40
15.0
 40
15.0
 40
16.0
 40
16.0
 40
16.0
 40
17.0
 40
17.0
 40
17.0
 40
17.0
 10
203.9855520630973
 20
544.7875998208868
 30
0.0
 41
1.0
 10
205.9778048098057
 20
542.2568832494922
 30
0.0
 41
1.0
 10
209.5234710042399
 20
539.7448710441008
 30
0.0
 41
1.0
 10
206.9163518530694
 20
532.2521080882563
 30
0.0
 41
1.0
 10
206.707433595508
 20
531.6514284698729
 30
0.0
 41
1.0
 10
206.1743591644159
 20
530.7831813106976
 30
0.0
 41
1.0
 10
205.7518465577921
 20
530.8182123690596
 30
0.0
 41
1.0
 10
205.0738994620374
 20
530.8170053335839
 30
0.0
 41
1.0
 10
203.4126119705661
 20
532.0340754150577
 30
0.0
 41
1.0
 10
202.2248847293611
 20
533.7699356871032
 30
0.0
 41
1.0
 10
200.5971293523512
 20
536.1484811452512
 30
0.0
 41
1.0
 10
199.6404327336013
 20
539.578196121623
 30
0.0
 41
1.0
 10
199.3266590683182
 20
539.6796435304541
 30
0.0
 41
1.0
 10
197.554261877936
 20
540.2537724598073
 30
0.0
 41
1.0
 10
193.2269751007736
 20
536.0801626558663
 30
0.0
 41
1.0
 10
191.9244854783283
 20
534.7347956520325
 30
0.0
 41
1.0
 10
180.5764039637503
 20
523.0141326773646
 30
0.0
 41
1.0
 10
193.4595115832035
 20
503.7474468572161
 30
0.0
 41
1.0
 10
208.2541895570293
 20
511.7714613610252
 30
0.0
 41
1.0
 10
206.2263509614418
 20
517.5655350094663
 30
0.0
 41
1.0
 10
203.3549930125817
 20
517.478829177231
 30
0.0
 41
1.0
 10
202.7639826003525
 20
524.8472398014692
 30
0.0
 41
1.0
 10
202.6322594804484
 20
526.4912426150496
 30
0.0
 41
1.0
 10
202.5446818345435
 20
527.7828741945186
 30
0.0
 41
1.0
 10
202.5446818345435
 20
527.7828741945186
 30
0.0
 41
1.0
 10
210.3361598559226
 20
526.2988888172115
 30
0.0
 41
1.0
 10
209.925456361733
 20
522.344262755927
 30
0.0
 41
1.0
 10
211.729555867375
 20
514.9985985428875
 30
0.0
 41
1.0
 10
211.729555867375
 20
524.8810027672209
 30
0.0
 41
1.0
 10
207.7625659031393
 20
530.81948046167
 30
0.0
 41
1.0
 10
213.3431244583062
 20
540.1948854092124
 30
0.0
 41
1.0
 10
223.5030824527384
 20
527.9565236263537
 30
0.0
 41
1.0
 10
214.9566930492373
 20
524.7294657002794
 30
0.0
 41
1.0
 10
214.9566930492373
 20
512.7644571307476
 30
0.0
 41
1.0
 10
216.7481116287755
 20
515.2598256206275
 30
0.0
 41
1.0
 10
218.4734308809971
 20
517.6428094029118
 30
0.0
 41
1.0
 10
219.9909414566913
 20
520.3094496509824
 30
0.0
 41
1.0
 10
221.6252750641176
 20
523.1811246229951
 30
0.0
 41
1.0
 10
221.7455060947401
 20
524.444699653459
 30
0.0
 41
1.0
 10
222.1547037289547
 20
527.7883428439008
 30
0.0
 41
1.0
 10
222.4832982266216
 20
530.4742422484918
 30
0.0
 41
1.0
 10
222.8351146702163
 20
533.3682673527626
 30
0.0
 41
1.0
 10
222.8351146702163
 20
533.3682673527626
 30
0.0
 41
1.0
 10
219.7355984016581
 20
537.4850288867791
 30
0.0
 41
1.0
 10
219.7355984016581
 20
537.4850288867791
 30
0.0
 41
1.0
 10
221.9952410831984
 20
542.0527203392197
 30
0.0
 41
1.0
 10
218.2505107675293
 20
544.8738565369892
 30
0.0
 41
1.0
 10
214.5057804518601
 20
547.6949927347588
 30
0.0
 41
1.0
 10
210.7610501361909
 20
550.5161289325283
 30
0.0
 41
1.0
 10
208.502550778493
 20
548.6066192286479
 30
0.0
 41
1.0
 10
206.2440514207952
 20
546.6971095247673
 30
0.0
 41
1.0
 10
203.9855520630973
 20
544.7875998208868
 30
0.0
 41
1.0
  0
LWPOLYLINE
  5
2F6
330
1F
100
AcDbEntity
  8
templatesarea.com
100
AcDbPolyline
 90
       11
 70
     0
 43
0.0
 10
210.7901370104417
 20
575.8800417907891
 10
213.6921669493156
 20
566.8900577410166
 10
223.1390606177688
 20
566.907811037562
 10
215.4856461793456
 20
561.3698920964194
 10
218.4220731302764
 20
552.3912416243522
 10
210.7901370104417
 20
557.9583266955338
 10
203.158200890607
 20
552.3912416243522
 10
206.0946278415377
 20
561.3698920964194
 10
198.4412134031146
 20
566.907811037562
 10
207.8881070715677
 20
566.8900577410166
 10
210.7901370104417
 20
575.8800417907891
  0
SPLINE
  5
2F7
330
1F
100
AcDbEntity
  8
templatesarea.com
100
AcDbSpline
210
0.0
220
0.0
230
1.0
 70
    13
 71
     3
 72
    35
 73
    31
 74
     0
 42
0.000000001
 43
0.0000000001
 40
0.0
 40
0.0
 40
0.0
 40
0.0
 40
1.0
 40
1.0
 40
1.0
 40
2.0
 40
2.0
 40
2.0
 40
3.0
 40
3.0
 40
3.0
 40
4.0
 40
4.0
 40
4.0
 40
5.0
 40
5.0
 40
5.0
 40
6.0
 40
6.0
 40
6.0
 40
7.0
 40
7.0
 40
7.0
 40
8.0
 40
8.0
 40
8.0
 40
9.0
 40
9.0
 40
9.0
 40
10.0
 40
10.0
 40
10.0
 40
10.0
 10
163.6952381111067
 20
440.1544253293629
 30
0.0
 41
1.0
 10
163.0034671735438
 20
440.6693237663728
 30
0.0
 41
1.0
 10
162.3116962359809
 20
441.1842222033826
 30
0.0
 41
1.0
 10
161.6199252984179
 20
441.6991206403925
 30
0.0
 41
1.0
 10
159.6352018515837
 20
443.0254662550706
 30
0.0
 41
1.0
 10
159.3429065048892
 20
446.8167461369795
 30
0.0
 41
1.0
 10
161.0026812203113
 20
449.2592510161639
 30
0.0
 41
1.0
 10
163.5738182436621
 20
453.2733189185604
 30
0.0
 41
1.0
 10
169.7321514944372
 20
457.5758778898203
 30
0.0
 41
1.0
 10
174.3695661706278
 20
458.8965170877516
 30
0.0
 41
1.0
 10
174.2514750462853
 20
455.3281044821185
 30
0.0
 41
1.0
 10
173.6214707862868
 20
452.889245369189
 30
0.0
 41
1.0
 10
173.7425736305788
 20
450.2310854904504
 30
0.0
 41
1.0
 10
174.1566058678707
 20
441.1558222126291
 30
0.0
 41
1.0
 10
176.7172018713975
 20
436.1303711976598
 30
0.0
 41
1.0
 10
181.0719904070477
 20
432.0866616304955
 30
0.0
 41
1.0
 10
175.2824343385311
 20
422.4315630065741
 30
0.0
 41
1.0
 10
164.3976821614738
 20
418.7873818674703
 30
0.0
 41
1.0
 10
157.0552674357484
 20
420.4311469136864
 30
0.0
 41
1.0
 10
151.8274763936339
 20
421.601675648863
 30
0.0
 41
1.0
 10
147.9063755307366
 20
425.2530690646884
 30
0.0
 41
1.0
 10
152.6129805099814
 20
432.8533821250515
 30
0.0
 41
1.0
 10
157.0882378436185
 20
440.0804004232316
 30
0.0
 41
1.0
 10
162.0509182743737
 20
434.1278151984919
 30
0.0
 41
1.0
 10
158.9566137934496
 20
429.3841185103932
 30
0.0
 41
1.0
 10
158.4266303380954
 20
428.5714296587106
 30
0.0
 41
1.0
 10
156.4927098514649
 20
427.4585991373065
 30
0.0
 41
1.0
 10
157.613069672743
 20
426.9977267292185
 30
0.0
 41
1.0
 10
165.4664464646668
 20
423.7663889905842
 30
0.0
 41
1.0
 10
168.4585902346665
 20
435.3910732058032
 30
0.0
 41
1.0
 10
163.6952381111068
 20
440.154425329363
 30
0.0
 41
1.0
  0
SPLINE
  5
2F8
330
1F
100
AcDbEntity
  8
templatesarea.com
100
AcDbSpline
210
0.0
220
0.0
230
1.0
 70
     9
 71
     3
 72
    23
 73
    19
 74
     0
 42
0.000000001
 43
0.0000000001
 40
0.0
 40
0.0
 40
0.0
 40
0.0
 40
1.0
 40
1.0
 40
1.0
 40
2.0
 40
2.0
 40
2.0
 40
3.0
 40
3.0
 40
3.0
 40
4.0
 40
4.0
 40
4.0
 40
5.0
 40
5.0
 40
5.0
 40
6.0
 40
6.0
 40
6.0
 40
6.0
 10
302.7092564786347
 20
328.8190643687837
 30
0.0
 10
301.9984113147238
 20
321.2344439544742
 30
0.0
 10
303.6533514270689
 20
319.0335107175687
 30
0.0
 10
308.111093231525
 20
318.3984340871286
 30
0.0
 10
316.0320752107401
 20
317.2710997564932
 30
0.0
 10
319.2555666263475
 20
319.9688082735183
 30
0.0
 10
321.8037987269231
 20
325.3536842877447
 30
0.0
 10
323.9066132980997
 20
329.7962882366643
 30
0.0
 10
324.6443261741932
 20
331.5273139056327
 30
0.0
 10
318.7379470739446
 20
333.3734189789938
 30
0.0
 10
313.2524954645568
 20
335.0890690250612
 30
0.0
 10
308.2417860261831
 20
332.5356852982559
 30
0.0
 10
312.5361816512636
 20
330.5567475239566
 30
0.0
 10
314.1681375850454
 20
329.8044515828437
 30
0.0
 10
315.8659550787792
 20
326.0883854438885
 30
0.0
 10
314.3765010520898
 20
326.0883854438885
 30
0.0
 10
309.6022908855537
 20
326.0883854438885
 30
0.0
 10
307.0305198158977
 20
327.0179765830914
 30
0.0
 10
302.7092564786347
 20
328.8190643687837
 30
0.0
  0
ELLIPSE
  5
2F9
330
1F
100
AcDbEntity
  8
templatesarea.com
100
AcDbEllipse
 10
251.3430253885708
 20
268.6874601325623
 30
0.0
 11
0.0
 21
22.52330615520248
 31
0.0
210
0.0
220
0.0
230
1.0
 40
1.0
 41
0.0
 42
6.283185307179586
  0
ELLIPSE
  5
2FA
330
1F
100
AcDbEntity
  8
templatesarea.com
100
AcDbEllipse
 10
315.3887559783324
 20
251.3107078366213
 30
0.0
 11
0.0
 21
22.52330615520248
 31
0.0
210
0.0
220
0.0
230
1.0
 40
1.0
 41
0.0
 42
6.283185307179586
  0
ELLIPSE
  5
2FB
330
1F
100
AcDbEntity
  8
templatesarea.com
100
AcDbEllipse
 10
177.8641916374939
 20
279.1135590635998
 30
0.0
 11
0.0
 21
22.52330615520248
 31
0.0
210
0.0
220
0.0
230
1.0
 40
1.0
 41
0.0
 42
6.283185307179586
  0
ELLIPSE
  5
2FC
330
1F
100
AcDbEntity
  8
templatesarea.com
100
AcDbEllipse
 10
114.3149193046993
 20
249.82133306572
 30
0.0
 11
0.0
 21
22.52330615520248
 31
0.0
210
0.0
220
0.0
230
1.0
 40
1.0
 41
0.0
 42
6.283185307179586
  0
ELLIPSE
  5
2FD
330
1F
100
AcDbEntity
  8
templatesarea.com
100
AcDbEllipse
 10
225.2585981602449
 20
327.8261478548496
 30
0.0
 11
0.0
 21
22.52330615520248
 31
0.0
210
0.0
220
0.0
230
1.0
 40
1.0
 41
0.0
 42
6.283185307179586
  0
ELLIPSE
  5
2FE
330
1F
100
AcDbEntity
  8
templatesarea.com
100
AcDbEllipse
 10
153.7655974370363
 20
361.8349650612809
 30
0.0
 11
0.0
 21
22.52330615520248
 31
0.0
210
0.0
220
0.0
230
1.0
 40
1.0
 41
0.0
 42
6.283185307179586
  0
ELLIPSE
  5
2FF
330
1F
100
AcDbEntity
  8
templatesarea.com
100
AcDbEllipse
 10
257.0331946987482
 20
388.3965121342654
 30
0.0
 11
0.0
 21
22.52330615520248
 31
0.0
210
0.0
220
0.0
230
1.0
 40
1.0
 41
0.0
 42
6.283185307179586
  0
ELLIPSE
  5
300
330
1F
100
AcDbEntity
  8
templatesarea.com
100
AcDbEllipse
 10
203.910021296991
 20
450.4564096961587
 30
0.0
 11
0.0
 21
22.52330615520248
 31
0.0
210
0.0
220
0.0
230
1.0
 40
1.0
 41
0.0
 42
6.283185307179586
  0
SPLINE
  5
301
330
1F
100
AcDbEntity
  8
templatesarea.com
100
AcDbSpline
210
0.0
220
0.0
230
1.0
 70
    12
 71
     3
 72
    29
 73
    25
 74
     0
 42
0.000000001
 43
0.0000000001
 40
0.0
 40
0.0
 40
0.0
 40
0.0
 40
1.0
 40
1.0
 40
1.0
 40
2.0
 40
2.0
 40
2.0
 40
3.0
 40
3.0
 40
3.0
 40
4.0
 40
4.0
 40
4.0
 40
5.0
 40
5.0
 40
5.0
 40
6.0
 40
6.0
 40
6.0
 40
7.0
 40
7.0
 40
7.0
 40
8.0
 40
8.0
 40
8.0
 40
8.0
 10
204.8515800602044
 20
112.9116232855934
 30
0.0
 41
1.0
 10
204.8515800602044
 20
102.237774708718
 30
0.0
 41
1.0
 10
204.8515800602044
 20
91.56392613184269
 30
0.0
 41
1.0
 10
204.8515800602044
 20
80.89007755496732
 30
0.0
 41
1.0
 10
203.3608117865909
 20
80.89007755496732
 30
0.0
 41
1.0
 10
201.8700435129773
 20
80.89007755496732
 30
0.0
 41
1.0
 10
200.3792752393637
 20
80.89007755496732
 30
0.0
 41
1.0
 10
197.1628175402667
 20
93.37555888527564
 30
0.0
 41
1.0
 10
194.7106434549281
 20
97.86706365548337
 30
0.0
 41
1.0
 10
189.4459984713241
 20
103.2644620842373
 30
0.0
 41
1.0
 10
181.5868360068654
 20
111.3215262517047
 30
0.0
 41
1.0
 10
161.0939046324712
 20
120.3509796839756
 30
0.0
 41
1.0
 10
165.1773213494982
 20
145.2251710272619
 30
0.0
 41
1.0
 10
193.9163155275
 20
145.2251710272619
 30
0.0
 41
1.0
 10
222.6553097055017
 20
145.2251710272619
 30
0.0
 41
1.0
 10
251.3943038835034
 20
145.2251710272619
 30
0.0
 41
1.0
 10
245.6016568392489
 20
134.1964903389256
 30
0.0
 41
1.0
 10
218.4076485768332
 20
119.6016954628124
 30
0.0
 41
1.0
 10
212.5927306561088
 20
80.89007755496732
 30
0.0
 41
1.0
 10
211.345680457474
 20
80.89007755496732
 30
0.0
 41
1.0
 10
210.0986302588392
 20
80.89007755496732
 30
0.0
 41
1.0
 10
208.8515800602044
 20
80.89007755496732
 30
0.0
 41
1.0
 10
208.8515800602044
 20
91.56392613184269
 30
0.0
 41
1.0
 10
208.8515800602044
 20
102.237774708718
 30
0.0
 41
1.0
 10
208.8515800602044
 20
112.9116232855934
 30
0.0
 41
1.0
  0
LINE
  5
302
330
1F
100
AcDbEntity
  8
0
 62
     2
100
AcDbLine
 10
204.8515800602044
 20
112.9113379039358
 30
0.0
 11
208.8515800602044
 21
112.9113379039358
 31
0.0
  0
MTEXT
  5
309
330
1F
100
AcDbEntity
  8
0
 62
     3
100
AcDbMText
 10
174.9111401873297
 20
69.89446274151887
 30
0.0
 40
5.525397995891753
 41
5.525397995891753
 71
     1
 72
     5
  1
templatesarea.com
 73
     1
 44
1.0
1001
ACAD
1000
ACAD_MTEXT_COLUMN_INFO_BEGIN
1070
    75
1070
     2
1070
    79
1070
     0
1070
    76
1070
     1
1070
    78
1070
     0
1070
    48
1040
5.525397995891753
1070
    49
1040
27.62698997945877
1070
    50
1070
     1
1040
0.0
1000
ACAD_MTEXT_COLUMN_INFO_END
1000
MTEXTBEGIN
1070
    73
1070
     1
1070
    44
1040
1.0
1070
    74
1070
     0
1000
MTEXTEND
  0
ENDSEC
  0
SECTION
  2
OBJECTS
  0
DICTIONARY
  5
C
330
0
100
AcDbDictionary
281
     1
  3
ACAD_BACKGROUND
350
303
  3
ACAD_CIP_PREVIOUS_PRODUCT_INFO
350
216
  3
ACAD_COLOR
350
6B
  3
ACAD_DETAILVIEWSTYLE
350
21B
  3
ACAD_GROUP
350
D
  3
ACAD_LAYOUT
350
1A
  3
ACAD_MATERIAL
350
6A
  3
ACAD_MLEADERSTYLE
350
12D
  3
ACAD_MLINESTYLE
350
17
  3
ACAD_PLOTSETTINGS
350
19
  3
ACAD_PLOTSTYLENAME
350
E
  3
ACAD_SCALELIST
350
10C
  3
ACAD_SECTIONVIEWSTYLE
350
219
  3
ACAD_TABLESTYLE
350
7E
  3
ACAD_VISUALSTYLE
350
EF
  3
ACDB_RECOMPOSE_DATA
350
312
  3
AcDbVariableDictionary
350
5E
  3
AcDsDecomposeData
350
319
  3
DWGPROPS
350
313
  0
DICTIONARY
  5
1FF
330
2
100
AcDbDictionary
280
     1
281
     1
  3
ACAD_LAYERSTATES
360
200
  0
DICTIONARY
  5
13C
330
10
100
AcDbDictionary
280
     1
281
     1
  0
DICTIONARY
  5
2A2
330
2A1
100
AcDbDictionary
280
     1
281
     1
  0
DICTIONARY
  5
1CE
330
1F
100
AcDbDictionary
280
     1
281
     1
  0
DICTIONARY
  5
303
102
{ACAD_REACTORS
330
C
102
}
330
C
100
AcDbDictionary
281
     1
  0
XRECORD
  5
216
102
{ACAD_REACTORS
330
C
102
}
330
C
100
AcDbXrecord
280
     1
300
ACD
300
2022
300

  0
DICTIONARY
  5
6B
102
{ACAD_REACTORS
330
C
102
}
330
C
100
AcDbDictionary
281
     1
  0
DICTIONARY
  5
21B
102
{ACAD_REACTORS
330
C
102
}
330
C
100
AcDbDictionary
281
     1
  3
Imperial24
350
2A4
  3
Metric50
350
21C
  0
DICTIONARY
  5
D
102
{ACAD_REACTORS
330
C
102
}
330
C
100
AcDbDictionary
281
     1
  0
DICTIONARY
  5
1A
102
{ACAD_REACTORS
330
C
102
}
330
C
100
AcDbDictionary
281
     1
  3
Layout1
350
D3
  3
Layout2
350
D7
  3
Model
350
22
  0
DICTIONARY
  5
6A
102
{ACAD_REACTORS
330
C
102
}
330
C
100
AcDbDictionary
281
     1
  3
ByBlock
350
ED
  3
ByLayer
350
EC
  3
Global
350
EE
  0
DICTIONARY
  5
12D
102
{ACAD_REACTORS
330
C
102
}
330
C
100
AcDbDictionary
281
     1
  3
Annotative
350
13B
  3
Standard
350
12E
  0
DICTIONARY
  5
17
102
{ACAD_REACTORS
330
C
102
}
330
C
100
AcDbDictionary
281
     1
  3
Standard
350
18
  0
DICTIONARY
  5
19
102
{ACAD_REACTORS
330
C
102
}
330
C
100
AcDbDictionary
281
     1
  0
ACDBDICTIONARYWDFLT
  5
E
102
{ACAD_REACTORS
330
C
102
}
330
C
100
AcDbDictionary
281
     1
  3
Normal
350
F
100
AcDbDictionaryWithDefault
340
F
  0
DICTIONARY
  5
10C
102
{ACAD_REACTORS
330
C
102
}
330
C
100
AcDbDictionary
281
     1
  3
A0
350
10D
  3
A1
350
1BE
  3
A2
350
1BF
  3
A3
350
1C0
  3
A4
350
1C1
  3
A5
350
1C2
  3
A6
350
1C3
  3
A7
350
1C4
  3
A8
350
1C5
  3
A9
350
1C6
  3
B0
350
1C7
  3
B1
350
1C8
  3
B2
350
1C9
  3
B3
350
1CA
  3
B4
350
1CB
  3
B5
350
1CC
  3
B6
350
1CD
  0
DICTIONARY
  5
219
102
{ACAD_REACTORS
330
C
102
}
330
C
100
AcDbDictionary
281
     1
  3
Imperial24
350
2A3
  3
Metric50
350
21A
  0
DICTIONARY
  5
7E
102
{ACAD_REACTORS
330
C
102
}
330
C
100
AcDbDictionary
281
     1
  3
Standard
350
7F
  0
DICTIONARY
  5
EF
102
{ACAD_REACTORS
330
C
102
}
330
C
100
AcDbDictionary
281
     1
  3
2dWireframe
350
F5
  3
Basic
350
F4
  3
Brighten
350
FB
  3
ColorChange
350
FF
  3
Conceptual
350
F8
  3
Dim
350
FA
  3
EdgeColorOff
350
1E6
  3
Facepattern
350
FE
  3
Flat
350
F0
  3
FlatWithEdges
350
F1
  3
Gouraud
350
F2
  3
GouraudWithEdges
350
F3
  3
Hidden
350
F7
  3
JitterOff
350
1E4
  3
Linepattern
350
FD
  3
OverhangOff
350
1E5
  3
Realistic
350
F9
  3
Shaded
350
1F3
  3
Shaded with edges
350
1F2
  3
Shades of Gray
350
1EF
  3
Sketchy
350
1F0
  3
Thicken
350
FC
  3
Wireframe
350
F6
  3
X-Ray
350
1F1
  0
XRECORD
  5
312
102
{ACAD_REACTORS
330
C
102
}
330
C
100
AcDbXrecord
280
     1
 90
        1
330
7F
330
309
  0
DICTIONARY
  5
5E
102
{ACAD_REACTORS
330
C
102
}
330
C
100
AcDbDictionary
281
     1
  3
CANNOSCALE
350
146
  3
CENTEREXE
350
259
  3
CENTERLTYPEFILE
350
25A
  3
CMLEADERSTYLE
350
145
  3
CTABLESTYLE
350
84
  3
CVIEWDETAILSTYLE
350
227
  3
CVIEWSECTIONSTYLE
350
228
  3
DIMASSOC
350
5F
  3
HIDETEXT
350
63
  3
INDEXCTL
350
30D
  3
LAYEREVAL
350
1AE
  3
LAYERNOTIFY
350
1AF
  3
LIGHTINGUNITS
350
30B
  3
MSLTSCALE
350
30A
  3
PSOLHEIGHT
350
30F
  3
PSOLWIDTH
350
30E
  3
SORTENTS
350
30C
  3
XCLIPFRAME
350
310
  0
DICTIONARY
  5
319
102
{ACAD_REACTORS
330
C
102
}
330
C
100
AcDbDictionary
281
     1
  3
AcDsRecords
350
31B
  3
AcDsSchemas
350
31A
1001
ACAD
1070
     2
  0
XRECORD
  5
313
102
{ACAD_REACTORS
330
C
102
}
330
C
100
AcDbXrecord
280
     1
  1
DWGPROPS COOKIE
  2
Christmas Laser Cut Ideas: 3D Tree Template Download
  3

  4
templatesarea.com
  6
Creative Commons Attribution 4.0 International License. (CC BY-NC-SA 4.0)
  7

  8
cengi
  9

300
=
301
=
302
=
303
=
304
=
305
=
306
=
307
=
308
=
309
=
 40
0.0041550925925926
 41
2460089.526377315
 42
2460089.530520834
  1
https://www.templatesarea.com/license-agreement/
 90
        0
  0
DICTIONARY
  5
200
102
{ACAD_REACTORS
330
1FF
102
}
330
1FF
100
AcDbDictionary
281
     1
  0
ACDBDETAILVIEWSTYLE
  5
2A4
102
{ACAD_XDICTIONARY
360
35B
102
}
102
{ACAD_REACTORS
330
21B
102
}
330
21B
100
AcDbModelDocViewStyle
 70
     0
  3
Imperial24
290
     0
100
AcDbDetailViewStyle
 70
     0
 71
     0
 90
        3
 71
     1
340
11
 40
0.24
340
0
 40
0.24
300

 40
0.36
280
     3
 71
     2
340
16
 90
       25
 71
     3
340
11
 40
0.24
 90
        1
 40
0.75
 90
        1
300
%<\AcVar ViewType \f "%tc1">% %<\AcVar ViewDetailId>%\PSCALE %<\AcVar ViewScale \f "%sn">%
 71
     4
340
16
 90
       25
340
16
 90
       25
280
     0
  0
ACDBDETAILVIEWSTYLE
  5
21C
102
{ACAD_XDICTIONARY
360
357
102
}
102
{ACAD_REACTORS
330
21B
102
}
330
21B
100
AcDbModelDocViewStyle
 70
     0
  3
Metric50
290
     0
100
AcDbDetailViewStyle
 70
     0
 71
     0
 90
        3
 71
     1
340
11
 40
5.0
340
0
 40
5.0
300

 40
0.0
280
     1
 71
     2
340
16
 90
       25
 71
     3
340
11
 40
5.0
 90
        0
 40
15.0
 90
        1
300
%<\AcVar ViewDetailId>% (%<\AcVar ViewScale \f "%sn">%)
 71
     4
340
16
 90
       25
340
16
 90
       25
280
     0
  0
LAYOUT
  5
D3
102
{ACAD_XDICTIONARY
360
31E
102
}
102
{ACAD_REACTORS
330
1A
102
}
330
1A
100
AcDbPlotSettings
  1

  2
C:\Documents and Settings\basas\Application Data\Autodesk\AutoCAD 2005\R16.1\enu\plotters\Default Windows System Printer.pc3
  4

  6

 40
0.0
 41
0.0
 42
0.0
 43
0.0
 44
0.0
 45
0.0
 46
0.0
 47
0.0
 48
0.0
 49
0.0
140
0.0
141
0.0
142
1.0
143
1.0
 70
   688
 72
     0
 73
     0
 74
     5
  7

 75
    16
147
1.0
148
0.0
149
0.0
100
AcDbLayout
  1
Layout1
 70
     1
 71
     1
 10
0.0
 20
0.0
 11
12.0
 21
9.0
 12
0.0
 22
0.0
 32
0.0
 14
0.0
 24
0.0
 34
0.0
 15
0.0
 25
0.0
 35
0.0
146
0.0
 13
0.0
 23
0.0
 33
0.0
 16
1.0
 26
0.0
 36
0.0
 17
0.0
 27
1.0
 37
0.0
 76
     0
330
D2
  0
LAYOUT
  5
D7
102
{ACAD_XDICTIONARY
360
320
102
}
102
{ACAD_REACTORS
330
1A
102
}
330
1A
100
AcDbPlotSettings
  1

  2
C:\Documents and Settings\basas\Application Data\Autodesk\AutoCAD 2005\R16.1\enu\plotters\Default Windows System Printer.pc3
  4

  6

 40
0.0
 41
0.0
 42
0.0
 43
0.0
 44
0.0
 45
0.0
 46
0.0
 47
0.0
 48
0.0
 49
0.0
140
0.0
141
0.0
142
1.0
143
1.0
 70
   688
 72
     0
 73
     0
 74
     5
  7

 75
    16
147
1.0
148
0.0
149
0.0
100
AcDbLayout
  1
Layout2
 70
     1
 71
     2
 10
0.0
 20
0.0
 11
12.0
 21
9.0
 12
0.0
 22
0.0
 32
0.0
 14
0.0
 24
0.0
 34
0.0
 15
0.0
 25
0.0
 35
0.0
146
0.0
 13
0.0
 23
0.0
 33
0.0
 16
1.0
 26
0.0
 36
0.0
 17
0.0
 27
1.0
 37
0.0
 76
     0
330
D6
  0
LAYOUT
  5
22
102
{ACAD_XDICTIONARY
360
205
102
}
102
{ACAD_REACTORS
330
1A
102
}
330
1A
100
AcDbPlotSettings
  1

  2
none_device
  4
ISO_A4_(210.00_x_297.00_MM)
  6

 40
7.5
 41
20.0
 42
7.5
 43
20.0
 44
210.0
 45
297.0
 46
11.54999923706054
 47
-13.65000009536743
 48
0.0
 49
0.0
140
0.0
141
0.0
142
1.0
143
8.704084754739808
 70
 11952
 72
     1
 73
     0
 74
     0
  7

 75
     0
147
0.1148885871608098
148
0.0
149
0.0
100
AcDbLayout
  1
Model
 70
     1
 71
     0
 10
0.0
 20
0.0
 11
12.0
 21
9.0
 12
0.0
 22
0.0
 32
0.0
 14
0.0
 24
0.0
 34
0.0
 15
0.0
 25
0.0
 35
0.0
146
0.0
 13
0.0
 23
0.0
 33
0.0
 16
1.0
 26
0.0
 36
0.0
 17
0.0
 27
1.0
 37
0.0
 76
     0
330
1F
331
EA
1001
ACAD_PSEXT
1000
None
1000
None
1000
Not applicable
1000
The layout will not be plotted unless a new plotter configuration name is selected.
1070
     0
  0
MATERIAL
  5
ED
102
{ACAD_XDICTIONARY
360
1F9
102
}
102
{ACAD_REACTORS
330
6A
102
}
330
6A
100
AcDbMaterial
  1
ByBlock
  0
MATERIAL
  5
EC
102
{ACAD_XDICTIONARY
360
1F7
102
}
102
{ACAD_REACTORS
330
6A
102
}
330
6A
100
AcDbMaterial
  1
ByLayer
  0
MATERIAL
  5
EE
102
{ACAD_XDICTIONARY
360
173
102
}
102
{ACAD_REACTORS
330
6A
102
}
330
6A
100
AcDbMaterial
  1
Global
 43
0.0007999999797903
 43
0.0
 43
0.0
 43
0.0
 43
0.0
 43
0.0007999999797903
 43
0.0
 43
0.0
 43
0.0
 43
0.0
 43
1.0
 43
0.0
 43
0.0
 43
0.0
 43
0.0
 43
1.0
 49
0.0007999999797903
 49
0.0
 49
0.0
 49
0.0
 49
0.0
 49
0.0007999999797903
 49
0.0
 49
0.0
 49
0.0
 49
0.0
 49
1.0
 49
0.0
 49
0.0
 49
0.0
 49
0.0
 49
1.0
142
0.0007999999797903
142
0.0
142
0.0
142
0.0
142
0.0
142
0.0007999999797903
142
0.0
142
0.0
142
0.0
142
0.0
142
1.0
142
0.0
142
0.0
142
0.0
142
0.0
142
1.0
144
0.0007999999797903
144
0.0
144
0.0
144
0.0
144
0.0
144
0.0007999999797903
144
0.0
144
0.0
144
0.0
144
0.0
144
1.0
144
0.0
144
0.0
144
0.0
144
0.0
144
1.0
1001
ACAD
1070
    -1
1070
     3
1070
     0
1000

1071
        0
1070
     0
  0
MLEADERSTYLE
  5
13B
102
{ACAD_REACTORS
330
12D
102
}
330
12D
100
AcDbMLeaderStyle
170
     2
171
     1
172
     0
 90
        2
 40
0.0
 41
0.0
173
     1
 91
-1056964608
340
14
 92
       -2
290
     1
 42
2.0
291
     1
 43
8.0
  3
Standard
 44
4.0
300

342
11
174
     1
178
     1
175
     1
176
     0
 93
-1056964608
 45
4.0
292
     0
297
     0
 46
4.0
 94
-1056964608
 47
1.0
 49
1.0
140
1.0
293
     1
141
0.0
294
     1
177
     0
142
1.0
295
     0
296
     1
143
3.75
1001
ACAD_MLEADERVER
1070
     2
  0
MLEADERSTYLE
  5
12E
102
{ACAD_REACTORS
330
12D
102
}
330
12D
100
AcDbMLeaderStyle
170
     2
171
     1
172
     0
 90
        2
 40
0.0
 41
0.0
173
     1
 91
-1056964608
340
14
 92
       -2
290
     1
 42
2.0
291
     1
 43
8.0
  3
Standard
 44
4.0
300

342
11
174
     1
178
     1
175
     1
176
     0
 93
-1056964608
 45
4.0
292
     0
297
     0
 46
4.0
 94
-1056964608
 47
1.0
 49
1.0
140
1.0
293
     1
141
0.0
294
     1
177
     0
142
1.0
295
     0
296
     0
143
3.75
1001
ACAD_MLEADERVER
1070
     2
  0
MLINESTYLE
  5
18
102
{ACAD_REACTORS
330
17
102
}
330
17
100
AcDbMlineStyle
  2
STANDARD
 70
     0
  3

 62
   256
 51
90.0
 52
90.0
 71
     2
 49
0.5
 62
   256
  6
BYLAYER
 49
-0.5
 62
   256
  6
BYLAYER
  0
ACDBPLACEHOLDER
  5
F
102
{ACAD_REACTORS
330
E
102
}
330
E
  0
SCALE
  5
10D
102
{ACAD_REACTORS
330
10C
102
}
330
10C
100
AcDbScale
 70
     0
300
1:1
140
1.0
141
1.0
290
     1
  0
SCALE
  5
1BE
102
{ACAD_REACTORS
330
10C
102
}
330
10C
100
AcDbScale
 70
     0
300
1:2
140
1.0
141
2.0
290
     0
  0
SCALE
  5
1BF
102
{ACAD_REACTORS
330
10C
102
}
330
10C
100
AcDbScale
 70
     0
300
1:4
140
1.0
141
4.0
290
     0
  0
SCALE
  5
1C0
102
{ACAD_REACTORS
330
10C
102
}
330
10C
100
AcDbScale
 70
     0
300
1:5
140
1.0
141
5.0
290
     0
  0
SCALE
  5
1C1
102
{ACAD_REACTORS
330
10C
102
}
330
10C
100
AcDbScale
 70
     0
300
1:8
140
1.0
141
8.0
290
     0
  0
SCALE
  5
1C2
102
{ACAD_REACTORS
330
10C
102
}
330
10C
100
AcDbScale
 70
     0
300
1:10
140
1.0
141
10.0
290
     0
  0
SCALE
  5
1C3
102
{ACAD_REACTORS
330
10C
102
}
330
10C
100
AcDbScale
 70
     0
300
1:16
140
1.0
141
16.0
290
     0
  0
SCALE
  5
1C4
102
{ACAD_REACTORS
330
10C
102
}
330
10C
100
AcDbScale
 70
     0
300
1:20
140
1.0
141
20.0
290
     0
  0
SCALE
  5
1C5
102
{ACAD_REACTORS
330
10C
102
}
330
10C
100
AcDbScale
 70
     0
300
1:30
140
1.0
141
30.0
290
     0
  0
SCALE
  5
1C6
102
{ACAD_REACTORS
330
10C
102
}
330
10C
100
AcDbScale
 70
     0
300
1:40
140
1.0
141
40.0
290
     0
  0
SCALE
  5
1C7
102
{ACAD_REACTORS
330
10C
102
}
330
10C
100
AcDbScale
 70
     0
300
1:50
140
1.0
141
50.0
290
     0
  0
SCALE
  5
1C8
102
{ACAD_REACTORS
330
10C
102
}
330
10C
100
AcDbScale
 70
     0
300
1:100
140
1.0
141
100.0
290
     0
  0
SCALE
  5
1C9
102
{ACAD_REACTORS
330
10C
102
}
330
10C
100
AcDbScale
 70
     0
300
2:1
140
2.0
141
1.0
290
     0
  0
SCALE
  5
1CA
102
{ACAD_REACTORS
330
10C
102
}
330
10C
100
AcDbScale
 70
     0
300
4:1
140
4.0
141
1.0
290
     0
  0
SCALE
  5
1CB
102
{ACAD_REACTORS
330
10C
102
}
330
10C
100
AcDbScale
 70
     0
300
8:1
140
8.0
141
1.0
290
     0
  0
SCALE
  5
1CC
102
{ACAD_REACTORS
330
10C
102
}
330
10C
100
AcDbScale
 70
     0
300
10:1
140
10.0
141
1.0
290
     0
  0
SCALE
  5
1CD
102
{ACAD_REACTORS
330
10C
102
}
330
10C
100
AcDbScale
 70
     0
300
100:1
140
100.0
141
1.0
290
     0
  0
ACDBSECTIONVIEWSTYLE
  5
2A3
102
{ACAD_XDICTIONARY
360
359
102
}
102
{ACAD_REACTORS
330
219
102
}
330
219
100
AcDbModelDocViewStyle
 70
     0
  3
Imperial24
290
     0
100
AcDbSectionViewStyle
 70
     0
 71
     0
 90
       78
 71
     1
340
11
 40
0.24
340
0
340
0
 40
0.24
300
I, O, Q, S, X, Z
 40
0.48
 90
        3
 40
0.18
 90
        1
 71
     2
340
16
 90
       25
340
16
 90
       50
 40
0.24
 40
0.0
 40
0.24
 71
     3
340
11
 40
0.24
 90
        1
 40
0.75
 90
        1
300
%<\AcVar ViewType \f "%tc1">% %<\AcVar ViewSectionStartId>%-%<\AcVar ViewSectionEndId>%\PSCALE %<\AcVar ViewScale \f "%sn">%
 71
     4
300
ANSI31
 40
1.0
 90
        0
290
     0
290
     0
 90
        6
 40
0.0
 40
1.570796326794896
 40
0.2617993877991494
 40
1.308996938995747
 40
-0.2617993877991494
 40
1.832595714594046
  0
ACDBSECTIONVIEWSTYLE
  5
21A
102
{ACAD_XDICTIONARY
360
355
102
}
102
{ACAD_REACTORS
330
219
102
}
330
219
100
AcDbModelDocViewStyle
 70
     0
  3
Metric50
290
     0
100
AcDbSectionViewStyle
 70
     0
 71
     0
 90
      102
 71
     1
340
11
 40
5.0
340
0
340
0
 40
5.0
300
I, O, Q, S, X, Z
 40
10.0
 90
        0
 40
2.5
 90
        0
 71
     2
340
16
 90
       25
340
16
 90
       50
 40
5.0
 40
2.5
 40
5.0
 71
     3
340
11
 40
5.0
 90
        0
 40
15.0
 90
        1
300
%<\AcVar ViewSectionStartId>%-%<\AcVar ViewSectionEndId>% (%<\AcVar ViewScale \f "%sn">%)
 71
     4
300
ANSI31
 40
1.0
 90
        0
290
     0
290
     0
 90
        6
 40
0.0
 40
1.570796326794896
 40
0.2617993877991494
 40
1.308996938995747
 40
-0.2617993877991494
 40
1.832595714594046
  0
TABLESTYLE
  5
7F
102
{ACAD_XDICTIONARY
360
162
102
}
102
{ACAD_REACTORS
330
7E
102
}
330
7E
100
AcDbTableStyle
  3
Standard
 70
     0
 71
     0
 40
1.5
 41
1.5
280
     0
281
     0
  7
Standard
140
4.5
170
     2
 62
     0
 63
     7
283
     0
274
    -2
284
     1
 64
     0
275
    -2
285
     1
 65
     0
276
    -2
286
     1
 66
     0
277
    -2
287
     1
 67
     0
278
    -2
288
     1
 68
     0
279
    -2
289
     1
 69
     0
  7
Standard
140
6.0
170
     5
 62
     0
 63
     7
283
     0
274
    -2
284
     1
 64
     0
275
    -2
285
     1
 65
     0
276
    -2
286
     1
 66
     0
277
    -2
287
     1
 67
     0
278
    -2
288
     1
 68
     0
279
    -2
289
     1
 69
     0
  7
Standard
140
4.5
170
     5
 62
     0
 63
     7
283
     0
274
    -2
284
     1
 64
     0
275
    -2
285
     1
 65
     0
276
    -2
286
     1
 66
     0
277
    -2
287
     1
 67
     0
278
    -2
288
     1
 68
     0
279
    -2
289
     1
 69
     0
  0
VISUALSTYLE
  5
F5
102
{ACAD_XDICTIONARY
360
32F
102
}
102
{ACAD_REACTORS
330
EF
102
}
330
EF
100
AcDbVisualStyle
  2
2dWireframe
 70
     4
 71
     0
 72
     2
 73
     1
 90
        0
 40
-0.6
 41
-30.0
 62
     5
 63
     7
 74
     1
 91
        4
 64
     7
 65
   257
 75
     1
175
     1
 42
1.0
 92
        0
 66
   257
 43
1.0
 76
     1
 77
     6
 78
     2
 67
     7
 79
     5
170
     0
171
     0
290
     0
174
     0
 93
        1
 44
0.0
173
     0
291
     0
 45
0.0
1001
ACAD
1000
AcDbSavedByObjectVersion
1070
     0
  0
VISUALSTYLE
  5
F4
102
{ACAD_XDICTIONARY
360
32D
102
}
102
{ACAD_REACTORS
330
EF
102
}
330
EF
100
AcDbVisualStyle
  2
Basic
 70
     7
 71
     1
 72
     0
 73
     1
 90
        0
 40
-0.6
 41
-30.0
 62
     5
 63
     7
 74
     0
 91
        4
 64
     7
 65
   257
 75
     1
175
     1
 42
1.0
 92
        8
 66
     7
 43
1.0
 76
     1
 77
     6
 78
     2
 67
     7
 79
     5
170
     0
171
     0
290
     0
174
     0
 93
        1
 44
0.0
173
     0
291
     1
 45
0.0
1001
ACAD
1000
AcDbSavedByObjectVersion
1070
     0
  0
VISUALSTYLE
  5
FB
102
{ACAD_XDICTIONARY
360
33B
102
}
102
{ACAD_REACTORS
330
EF
102
}
330
EF
100
AcDbVisualStyle
  2
Brighten
 70
    12
 71
     2
 72
     2
 73
     1
 90
        0
 40
-0.6
 41
-30.0
 62
     5
 63
     7
 74
     1
 91
        4
 64
     7
 65
   257
 75
     1
175
     1
 42
1.0
 92
        8
 66
     7
 43
1.0
 76
     1
 77
     6
 78
     2
 67
     7
 79
     5
170
     0
171
     0
290
     0
174
     0
 93
        1
 44
50.0
173
     0
291
     1
 45
0.0
1001
ACAD
1000
AcDbSavedByObjectVersion
1070
     0
  0
VISUALSTYLE
  5
FF
102
{ACAD_XDICTIONARY
360
343
102
}
102
{ACAD_REACTORS
330
EF
102
}
330
EF
100
AcDbVisualStyle
  2
ColorChange
 70
    16
 71
     2
 72
     2
 73
     3
 90
        0
 40
-0.6
 41
-30.0
 62
     5
 63
     8
 74
     1
 91
        4
 64
     7
 65
   257
 75
     1
175
     1
 42
1.0
 92
        8
 66
     8
 43
1.0
 76
     1
 77
     6
 78
     2
 67
     7
 79
     5
170
     0
171
     0
290
     0
174
     0
 93
        1
 44
0.0
173
     0
291
     1
 45
0.0
1001
ACAD
1000
AcDbSavedByObjectVersion
1070
     0
  0
VISUALSTYLE
  5
F8
102
{ACAD_XDICTIONARY
360
335
102
}
102
{ACAD_REACTORS
330
EF
102
}
330
EF
100
AcDbVisualStyle
  2
Conceptual
 70
     9
 71
     3
 72
     2
 73
     1
 90
        0
 40
-0.6
 41
-30.0
 62
     5
 63
     7
 74
     2
 91
        2
 64
     7
 65
   257
 75
     1
175
     1
 42
40.0
 92
        8
 66
     7
 43
1.0
 76
     1
 77
     6
 78
     2
 67
     7
 79
     3
170
     0
171
     0
290
     0
174
     0
 93
        1
 44
0.0
173
     0
291
     0
 45
0.0
1001
ACAD
1000
AcDbSavedByObjectVersion
1070
     0
  0
VISUALSTYLE
  5
FA
102
{ACAD_XDICTIONARY
360
339
102
}
102
{ACAD_REACTORS
330
EF
102
}
330
EF
100
AcDbVisualStyle
  2
Dim
 70
    11
 71
     2
 72
     2
 73
     1
 90
        0
 40
-0.6
 41
-30.0
 62
     5
 63
     7
 74
     1
 91
        4
 64
     7
 65
   257
 75
     1
175
     1
 42
1.0
 92
        8
 66
     7
 43
1.0
 76
     1
 77
     6
 78
     2
 67
     7
 79
     5
170
     0
171
     0
290
     0
174
     0
 93
        1
 44
-50.0
173
     0
291
     1
 45
0.0
1001
ACAD
1000
AcDbSavedByObjectVersion
1070
     0
  0
VISUALSTYLE
  5
1E6
102
{ACAD_XDICTIONARY
360
349
102
}
102
{ACAD_REACTORS
330
EF
102
}
330
EF
100
AcDbVisualStyle
  2
EdgeColorOff
 70
    22
 71
     2
 72
     2
 73
     0
 90
        0
 40
-0.6
 41
-30.0
 62
     5
 63
     7
 74
     1
 91
        4
 64
     7
 65
   257
 75
     1
175
     1
 42
1.0
 92
        8
 66
     7
 43
1.0
 76
     1
 77
     6
 78
     2
 67
     7
 79
     5
170
     0
171
     0
290
     0
174
     0
 93
        1
 44
0.0
173
     0
291
     1
 45
0.0
1001
ACAD
1000
AcDbSavedByObjectVersion
1070
     0
  0
VISUALSTYLE
  5
FE
102
{ACAD_XDICTIONARY
360
341
102
}
102
{ACAD_REACTORS
330
EF
102
}
330
EF
100
AcDbVisualStyle
  2
Facepattern
 70
    15
 71
     2
 72
     2
 73
     1
 90
        0
 40
-0.6
 41
-30.0
 62
     5
 63
     7
 74
     1
 91
        4
 64
     7
 65
   257
 75
     1
175
     1
 42
1.0
 92
        8
 66
     7
 43
1.0
 76
     1
 77
     6
 78
     2
 67
     7
 79
     5
170
     0
171
     0
290
     0
174
     0
 93
        1
 44
0.0
173
     0
291
     1
 45
0.0
1001
ACAD
1000
AcDbSavedByObjectVersion
1070
     0
  0
VISUALSTYLE
  5
F0
102
{ACAD_XDICTIONARY
360
325
102
}
102
{ACAD_REACTORS
330
EF
102
}
330
EF
100
AcDbVisualStyle
  2
Flat
 70
     0
 71
     2
 72
     1
 73
     1
 90
        2
 40
-0.6
 41
30.0
 62
     5
 63
     7
 74
     0
 91
        0
 64
     7
 65
   257
 75
     1
175
     1
 42
1.0
 92
        8
 66
     7
 43
1.0
 76
     1
 77
     6
 78
     2
 67
     7
 79
     5
170
     0
171
     0
290
     0
174
     0
 93
       13
 44
0.0
173
     0
291
     1
 45
0.0
1001
ACAD
1000
AcDbSavedByObjectVersion
1070
     0
  0
VISUALSTYLE
  5
F1
102
{ACAD_XDICTIONARY
360
327
102
}
102
{ACAD_REACTORS
330
EF
102
}
330
EF
100
AcDbVisualStyle
  2
FlatWithEdges
 70
     1
 71
     2
 72
     1
 73
     1
 90
        2
 40
-0.6
 41
30.0
 62
     5
 63
     7
 74
     1
 91
        0
 64
     7
 65
   257
 75
     1
175
     1
 42
1.0
 92
        0
 66
   257
 43
1.0
 76
     1
 77
     6
 78
     2
 67
     7
 79
     5
170
     0
171
     0
290
     0
174
     0
 93
       13
 44
0.0
173
     0
291
     1
 45
0.0
1001
ACAD
1000
AcDbSavedByObjectVersion
1070
     0
  0
VISUALSTYLE
  5
F2
102
{ACAD_XDICTIONARY
360
329
102
}
102
{ACAD_REACTORS
330
EF
102
}
330
EF
100
AcDbVisualStyle
  2
Gouraud
 70
     2
 71
     2
 72
     2
 73
     1
 90
        2
 40
-0.6
 41
30.0
 62
     5
 63
     7
 74
     0
 91
        0
 64
     7
 65
   257
 75
     1
175
     1
 42
1.0
 92
        0
 66
     7
 43
1.0
 76
     1
 77
     6
 78
     2
 67
     7
 79
     5
170
     0
171
     0
290
     0
174
     0
 93
       13
 44
0.0
173
     0
291
     1
 45
0.0
1001
ACAD
1000
AcDbSavedByObjectVersion
1070
     0
  0
VISUALSTYLE
  5
F3
102
{ACAD_XDICTIONARY
360
32B
102
}
102
{ACAD_REACTORS
330
EF
102
}
330
EF
100
AcDbVisualStyle
  2
GouraudWithEdges
 70
     3
 71
     2
 72
     2
 73
     1
 90
        2
 40
-0.6
 41
30.0
 62
     5
 63
     7
 74
     1
 91
        0
 64
     7
 65
   257
 75
     1
175
     1
 42
1.0
 92
        0
 66
   257
 43
1.0
 76
     1
 77
     6
 78
     2
 67
     7
 79
     5
170
     0
171
     0
290
     0
174
     0
 93
       13
 44
0.0
173
     0
291
     1
 45
0.0
1001
ACAD
1000
AcDbSavedByObjectVersion
1070
     0
  0
VISUALSTYLE
  5
F7
102
{ACAD_XDICTIONARY
360
333
102
}
102
{ACAD_REACTORS
330
EF
102
}
330
EF
100
AcDbVisualStyle
  2
Hidden
 70
     6
 71
     1
 72
     2
 73
     2
 90
        0
 40
-0.6
 41
-30.0
 62
     5
 63
     7
 74
     2
 91
        2
 64
     7
 65
   257
 75
     2
175
     1
 42
40.0
 92
        0
 66
   257
 43
1.0
 76
     1
 77
     6
 78
     2
 67
     7
 79
     3
170
     0
171
     0
290
     0
174
     0
 93
        1
 44
0.0
173
     0
291
     0
 45
0.0
1001
ACAD
1000
AcDbSavedByObjectVersion
1070
     0
  0
VISUALSTYLE
  5
1E4
102
{ACAD_XDICTIONARY
360
345
102
}
102
{ACAD_REACTORS
330
EF
102
}
330
EF
100
AcDbVisualStyle
  2
JitterOff
 70
    20
 71
     2
 72
     2
 73
     0
 90
        0
 40
-0.6
 41
-30.0
 62
     5
 63
     7
 74
     1
 91
        4
 64
     7
 65
   257
 75
     1
175
     1
 42
1.0
 92
       10
 66
     7
 43
1.0
 76
     1
 77
     6
 78
     2
 67
     7
 79
     5
170
     0
171
     0
290
     0
174
     0
 93
        1
 44
0.0
173
     0
291
     1
 45
0.0
1001
ACAD
1000
AcDbSavedByObjectVersion
1070
     0
  0
VISUALSTYLE
  5
FD
102
{ACAD_XDICTIONARY
360
33F
102
}
102
{ACAD_REACTORS
330
EF
102
}
330
EF
100
AcDbVisualStyle
  2
Linepattern
 70
    14
 71
     2
 72
     2
 73
     1
 90
        0
 40
-0.6
 41
-30.0
 62
     5
 63
     7
 74
     1
 91
        4
 64
     7
 65
   257
 75
     7
175
     7
 42
1.0
 92
        8
 66
     7
 43
1.0
 76
     1
 77
     6
 78
     2
 67
     7
 79
     5
170
     0
171
     0
290
     0
174
     0
 93
        1
 44
0.0
173
     0
291
     1
 45
0.0
1001
ACAD
1000
AcDbSavedByObjectVersion
1070
     0
  0
VISUALSTYLE
  5
1E5
102
{ACAD_XDICTIONARY
360
347
102
}
102
{ACAD_REACTORS
330
EF
102
}
330
EF
100
AcDbVisualStyle
  2
OverhangOff
 70
    21
 71
     2
 72
     2
 73
     0
 90
        0
 40
-0.6
 41
-30.0
 62
     5
 63
     7
 74
     1
 91
        4
 64
     7
 65
   257
 75
     1
175
     1
 42
1.0
 92
        9
 66
     7
 43
1.0
 76
     1
 77
     6
 78
     2
 67
     7
 79
     5
170
     0
171
     0
290
     0
174
     0
 93
        1
 44
0.0
173
     0
291
     1
 45
0.0
1001
ACAD
1000
AcDbSavedByObjectVersion
1070
     0
  0
VISUALSTYLE
  5
F9
102
{ACAD_XDICTIONARY
360
337
102
}
102
{ACAD_REACTORS
330
EF
102
}
330
EF
100
AcDbVisualStyle
  2
Realistic
 70
     8
 71
     2
 72
     3
 73
     0
 90
        2
 40
-0.6
 41
30.0
 62
     5
 63
     7
 74
     0
 91
        0
 64
     7
 65
   257
 75
     1
175
     1
 42
1.0
 92
        8
 66
   257
 43
1.0
 76
     1
 77
     6
 78
     2
 67
     7
 79
     3
170
     0
171
     0
290
     0
174
     0
 93
       13
 44
0.0
173
     0
291
     0
 45
0.0
1001
ACAD
1000
AcDbSavedByObjectVersion
1070
     0
  0
VISUALSTYLE
  5
1F3
102
{ACAD_XDICTIONARY
360
353
102
}
102
{ACAD_REACTORS
330
EF
102
}
330
EF
100
AcDbVisualStyle
  2
Shaded
 70
    27
 71
     2
 72
     2
 73
     1
 90
        2
 40
-0.6
 41
30.0
 62
     5
 63
     7
 74
     0
 91
        4
 64
     7
 65
   257
 75
     1
175
     1
 42
1.0
 92
        8
 66
   257
 43
1.0
 76
     1
 77
     6
 78
     2
 67
     8
 79
     3
170
     0
171
     0
290
     0
174
     0
 93
        5
 44
0.0
173
     0
291
     0
 45
0.0
1001
ACAD
1000
AcDbSavedByObjectVersion
1070
     0
  0
VISUALSTYLE
  5
1F2
102
{ACAD_XDICTIONARY
360
351
102
}
102
{ACAD_REACTORS
330
EF
102
}
330
EF
100
AcDbVisualStyle
  2
Shaded with edges
 70
    26
 71
     2
 72
     2
 73
     1
 90
        2
 40
-0.6
 41
30.0
 62
     5
 63
     7
 74
     1
 91
        2
 64
     7
 65
   257
 75
     2
175
     1
 42
1.0
 92
        8
 66
   257
 43
1.0
 76
     1
 77
     6
 78
     2
 67
     7
 79
     3
170
     0
171
     0
290
     0
174
     0
 93
        5
 44
0.0
173
     0
291
     0
 45
0.0
1001
ACAD
1000
AcDbSavedByObjectVersion
1070
     0
  0
VISUALSTYLE
  5
1EF
102
{ACAD_XDICTIONARY
360
34B
102
}
102
{ACAD_REACTORS
330
EF
102
}
330
EF
100
AcDbVisualStyle
  2
Shades of Gray
 70
    23
 71
     2
 72
     2
 73
     3
 90
        0
 40
-0.6
 41
-30.0
 62
     5
 63
     7
 74
     2
 91
        2
 64
     7
 65
     7
 75
     1
175
     1
 42
40.0
 92
        8
 66
     7
 43
1.0
 76
     1
 77
     6
 78
     2
 67
     7
 79
     3
170
     0
171
     0
290
     0
174
     0
 93
        1
 44
0.0
173
     0
291
     0
 45
0.0
1001
ACAD
1000
AcDbSavedByObjectVersion
1070
     0
  0
VISUALSTYLE
  5
1F0
102
{ACAD_XDICTIONARY
360
34D
102
}
102
{ACAD_REACTORS
330
EF
102
}
330
EF
100
AcDbVisualStyle
  2
Sketchy
 70
    24
 71
     1
 72
     2
 73
     2
 90
        0
 40
-0.6
 41
-30.0
 62
     5
 63
     7
 74
     2
 91
        2
 64
     7
 65
     7
 75
     1
175
     1
 42
40.0
 92
       11
 66
     7
 43
1.0
 76
     1
 77
     6
 78
     2
 67
     7
 79
     6
170
     0
171
     0
290
     0
174
     0
 93
        1
 44
0.0
173
     0
291
     0
 45
0.0
1001
ACAD
1000
AcDbSavedByObjectVersion
1070
     0
  0
VISUALSTYLE
  5
FC
102
{ACAD_XDICTIONARY
360
33D
102
}
102
{ACAD_REACTORS
330
EF
102
}
330
EF
100
AcDbVisualStyle
  2
Thicken
 70
    13
 71
     2
 72
     2
 73
     1
 90
        0
 40
-0.6
 41
-30.0
 62
     5
 63
     7
 74
     1
 91
        4
 64
     7
 65
   257
 75
     1
175
     1
 42
1.0
 92
       12
 66
     7
 43
1.0
 76
     1
 77
     6
 78
     2
 67
     7
 79
     5
170
     0
171
     0
290
     0
174
     0
 93
        1
 44
0.0
173
     0
291
     1
 45
0.0
1001
ACAD
1000
AcDbSavedByObjectVersion
1070
     0
  0
VISUALSTYLE
  5
F6
102
{ACAD_XDICTIONARY
360
331
102
}
102
{ACAD_REACTORS
330
EF
102
}
330
EF
100
AcDbVisualStyle
  2
Wireframe
 70
     5
 71
     0
 72
     2
 73
     0
 90
        0
 40
-0.6
 41
-30.0
 62
     5
 63
     7
 74
     1
 91
        4
 64
     7
 65
   257
 75
     1
175
     1
 42
1.0
 92
        0
 66
   257
 43
1.0
 76
     1
 77
     6
 78
     2
 67
     7
 79
     3
170
     0
171
     0
290
     0
174
     0
 93
        1
 44
0.0
173
     0
291
     0
 45
0.0
1001
ACAD
1000
AcDbSavedByObjectVersion
1070
     0
  0
VISUALSTYLE
  5
1F1
102
{ACAD_XDICTIONARY
360
34F
102
}
102
{ACAD_REACTORS
330
EF
102
}
330
EF
100
AcDbVisualStyle
  2
X-Ray
 70
    25
 71
     2
 72
     2
 73
     1
 90
        1
 40
0.5
 41
-30.0
 62
     5
 63
     7
 74
     1
 91
        0
 64
     7
 65
   257
 75
     1
175
     1
 42
1.0
 92
        8
 66
     7
 43
1.0
 76
     1
 77
     6
 78
     2
 67
     7
 79
     3
170
     0
171
     0
290
     0
174
     0
 93
       13
 44
0.0
173
     0
291
     0
 45
0.0
1001
ACAD
1000
AcDbSavedByObjectVersion
1070
     0
  0
DICTIONARYVAR
  5
146
102
{ACAD_REACTORS
330
5E
102
}
330
5E
100
DictionaryVariables
280
     0
  1
1:1
  0
DICTIONARYVAR
  5
259
102
{ACAD_REACTORS
330
5E
102
}
330
5E
100
DictionaryVariables
280
     0
  1
3.500000
  0
DICTIONARYVAR
  5
25A
102
{ACAD_REACTORS
330
5E
102
}
330
5E
100
DictionaryVariables
280
     0
  1
acadiso.lin
  0
DICTIONARYVAR
  5
145
102
{ACAD_REACTORS
330
5E
102
}
330
5E
100
DictionaryVariables
280
     0
  1
STANDARD
  0
DICTIONARYVAR
  5
84
102
{ACAD_REACTORS
330
5E
102
}
330
5E
100
DictionaryVariables
280
     0
  1
STANDARD
  0
DICTIONARYVAR
  5
227
102
{ACAD_REACTORS
330
5E
102
}
330
5E
100
DictionaryVariables
280
     0
  1
Metric50
  0
DICTIONARYVAR
  5
228
102
{ACAD_REACTORS
330
5E
102
}
330
5E
100
DictionaryVariables
280
     0
  1
Metric50
  0
DICTIONARYVAR
  5
5F
102
{ACAD_REACTORS
330
5E
102
}
330
5E
100
DictionaryVariables
280
     0
  1
2
  0
DICTIONARYVAR
  5
63
102
{ACAD_REACTORS
330
5E
102
}
330
5E
100
DictionaryVariables
280
     0
  1
1
  0
DICTIONARYVAR
  5
30D
102
{ACAD_REACTORS
330
5E
102
}
330
5E
100
DictionaryVariables
280
     0
  1
0
  0
DICTIONARYVAR
  5
1AE
102
{ACAD_REACTORS
330
5E
102
}
330
5E
100
DictionaryVariables
280
     0
  1
0
  0
DICTIONARYVAR
  5
1AF
102
{ACAD_REACTORS
330
5E
102
}
330
5E
100
DictionaryVariables
280
     0
  1
0
  0
DICTIONARYVAR
  5
30B
102
{ACAD_REACTORS
330
5E
102
}
330
5E
100
DictionaryVariables
280
     0
  1
2
  0
DICTIONARYVAR
  5
30A
102
{ACAD_REACTORS
330
5E
102
}
330
5E
100
DictionaryVariables
280
     0
  1
1
  0
DICTIONARYVAR
  5
30F
102
{ACAD_REACTORS
330
5E
102
}
330
5E
100
DictionaryVariables
280
     0
  1
80.000000
  0
DICTIONARYVAR
  5
30E
102
{ACAD_REACTORS
330
5E
102
}
330
5E
100
DictionaryVariables
280
     0
  1
5.000000
  0
DICTIONARYVAR
  5
30C
102
{ACAD_REACTORS
330
5E
102
}
330
5E
100
DictionaryVariables
280
     0
  1
127
  0
DICTIONARYVAR
  5
310
102
{ACAD_REACTORS
330
5E
102
}
330
5E
100
DictionaryVariables
280
     0
  1
2
  0
DICTIONARY
  5
31B
102
{ACAD_REACTORS
330
319
102
}
330
319
100
AcDbDictionary
281
     1
  0
DICTIONARY
  5
31A
102
{ACAD_REACTORS
330
319
102
}
330
319
100
AcDbDictionary
281
     1
  3
2398812490816
350
314
  3
2398812490832
350
315
  3
2398812490848
350
316
  3
2398812490864
350
317
  3
2398812490880
350
318
  0
DICTIONARY
  5
35B
330
2A4
100
AcDbDictionary
280
     1
281
     1
  3
ACAD_XREC_ROUNDTRIP
360
35C
  0
DICTIONARY
  5
357
330
21C
100
AcDbDictionary
280
     1
281
     1
  3
ACAD_XREC_ROUNDTRIP
360
358
  0
DICTIONARY
  5
31E
330
D3
100
AcDbDictionary
280
     1
281
     1
  3
ACAD_XREC_ROUNDTRIP
360
31F
  0
DICTIONARY
  5
320
330
D7
100
AcDbDictionary
280
     1
281
     1
  3
ACAD_XREC_ROUNDTRIP
360
321
  0
DICTIONARY
  5
205
330
22
100
AcDbDictionary
280
     1
281
     1
  3
ACAD_XREC_ROUNDTRIP
360
31C
  0
DICTIONARY
  5
1F9
330
ED
100
AcDbDictionary
280
     1
281
     1
  3
ACAD_XREC_ROUNDTRIP
360
323
  3
FBXASSET
360
1FA
  0
DICTIONARY
  5
1F7
330
EC
100
AcDbDictionary
280
     1
281
     1
  3
ACAD_XREC_ROUNDTRIP
360
322
  3
FBXASSET
360
1F8
  0
DICTIONARY
  5
173
330
EE
100
AcDbDictionary
280
     1
281
     1
  3
ACAD_XREC_ROUNDTRIP
360
324
  3
BUMPTILE
360
175
  3
DIFFUSETILE
360
174
  3
FBXASSET
360
1FB
  3
OPACITYTILE
360
176
  3
REFLECTIONTILE
360
177
  0
DICTIONARY
  5
359
330
2A3
100
AcDbDictionary
280
     1
281
     1
  3
ACAD_XREC_ROUNDTRIP
360
35A
  0
DICTIONARY
  5
355
330
21A
100
AcDbDictionary
280
     1
281
     1
  3
ACAD_XREC_ROUNDTRIP
360
356
  0
DICTIONARY
  5
162
330
7F
100
AcDbDictionary
280
     1
281
     1
  3
ACAD_ROUNDTRIP_2008_TABLESTYLE_CELLSTYLEMAP
360
311
  3
ACAD_XREC_ROUNDTRIP
360
31D
  0
DICTIONARY
  5
32F
330
F5
100
AcDbDictionary
280
     1
281
     1
  3
ACAD_XREC_ROUNDTRIP
360
330
  0
DICTIONARY
  5
32D
330
F4
100
AcDbDictionary
280
     1
281
     1
  3
ACAD_XREC_ROUNDTRIP
360
32E
  0
DICTIONARY
  5
33B
330
FB
100
AcDbDictionary
280
     1
281
     1
  3
ACAD_XREC_ROUNDTRIP
360
33C
  0
DICTIONARY
  5
343
330
FF
100
AcDbDictionary
280
     1
281
     1
  3
ACAD_XREC_ROUNDTRIP
360
344
  0
DICTIONARY
  5
335
330
F8
100
AcDbDictionary
280
     1
281
     1
  3
ACAD_XREC_ROUNDTRIP
360
336
  0
DICTIONARY
  5
339
330
FA
100
AcDbDictionary
280
     1
281
     1
  3
ACAD_XREC_ROUNDTRIP
360
33A
  0
DICTIONARY
  5
349
330
1E6
100
AcDbDictionary
280
     1
281
     1
  3
ACAD_XREC_ROUNDTRIP
360
34A
  0
DICTIONARY
  5
341
330
FE
100
AcDbDictionary
280
     1
281
     1
  3
ACAD_XREC_ROUNDTRIP
360
342
  0
DICTIONARY
  5
325
330
F0
100
AcDbDictionary
280
     1
281
     1
  3
ACAD_XREC_ROUNDTRIP
360
326
  0
DICTIONARY
  5
327
330
F1
100
AcDbDictionary
280
     1
281
     1
  3
ACAD_XREC_ROUNDTRIP
360
328
  0
DICTIONARY
  5
329
330
F2
100
AcDbDictionary
280
     1
281
     1
  3
ACAD_XREC_ROUNDTRIP
360
32A
  0
DICTIONARY
  5
32B
330
F3
100
AcDbDictionary
280
     1
281
     1
  3
ACAD_XREC_ROUNDTRIP
360
32C
  0
DICTIONARY
  5
333
330
F7
100
AcDbDictionary
280
     1
281
     1
  3
ACAD_XREC_ROUNDTRIP
360
334
  0
DICTIONARY
  5
345
330
1E4
100
AcDbDictionary
280
     1
281
     1
  3
ACAD_XREC_ROUNDTRIP
360
346
  0
DICTIONARY
  5
33F
330
FD
100
AcDbDictionary
280
     1
281
     1
  3
ACAD_XREC_ROUNDTRIP
360
340
  0
DICTIONARY
  5
347
330
1E5
100
AcDbDictionary
280
     1
281
     1
  3
ACAD_XREC_ROUNDTRIP
360
348
  0
DICTIONARY
  5
337
330
F9
100
AcDbDictionary
280
     1
281
     1
  3
ACAD_XREC_ROUNDTRIP
360
338
  0
DICTIONARY
  5
353
330
1F3
100
AcDbDictionary
280
     1
281
     1
  3
ACAD_XREC_ROUNDTRIP
360
354
  0
DICTIONARY
  5
351
330
1F2
100
AcDbDictionary
280
     1
281
     1
  3
ACAD_XREC_ROUNDTRIP
360
352
  0
DICTIONARY
  5
34B
330
1EF
100
AcDbDictionary
280
     1
281
     1
  3
ACAD_XREC_ROUNDTRIP
360
34C
  0
DICTIONARY
  5
34D
330
1F0
100
AcDbDictionary
280
     1
281
     1
  3
ACAD_XREC_ROUNDTRIP
360
34E
  0
DICTIONARY
  5
33D
330
FC
100
AcDbDictionary
280
     1
281
     1
  3
ACAD_XREC_ROUNDTRIP
360
33E
  0
DICTIONARY
  5
331
330
F6
100
AcDbDictionary
280
     1
281
     1
  3
ACAD_XREC_ROUNDTRIP
360
332
  0
DICTIONARY
  5
34F
330
1F1
100
AcDbDictionary
280
     1
281
     1
  3
ACAD_XREC_ROUNDTRIP
360
350
  0
XRECORD
  5
314
102
{ACAD_REACTORS
330
31A
102
}
330
31A
100
AcDbXrecord
280
     1
  1
AcDb_Thumbnail_Schema
102
{ATTRRECORD
341
315
  2
AcDbDs::TreatedAsObjectData
280
     1
291
     1
102
ATTRRECORD}
102
{ATTRRECORD
341
316
  2
AcDbDs::Legacy
280
     1
291
     1
102
ATTRRECORD}
  2
AcDbDs::ID
280
    10
 91
        8
102
{ATTRRECORD
341
317
  2
AcDs:Indexable
280
     1
291
     1
102
ATTRRECORD}
102
{ATTRRECORD
341
318
  2
AcDbDs::HandleAttribute
280
     7
282
     1
102
ATTRRECORD}
  2
Thumbnail_Data
280
    15
 91
        0
  0
XRECORD
  5
315
102
{ACAD_REACTORS
330
31A
102
}
330
31A
100
AcDbXrecord
280
     1
  1
AcDbDs::TreatedAsObjectDataSchema
  2
AcDbDs::TreatedAsObjectData
280
     1
 91
        0
  0
XRECORD
  5
316
102
{ACAD_REACTORS
330
31A
102
}
330
31A
100
AcDbXrecord
280
     1
  1
AcDbDs::LegacySchema
  2
AcDbDs::Legacy
280
     1
 91
        0
  0
XRECORD
  5
317
102
{ACAD_REACTORS
330
31A
102
}
330
31A
100
AcDbXrecord
280
     1
  1
AcDbDs::IndexedPropertySchema
  2
AcDs:Indexable
280
     1
 91
        0
  0
XRECORD
  5
318
102
{ACAD_REACTORS
330
31A
102
}
330
31A
100
AcDbXrecord
280
     1
  1
AcDbDs::HandleAttributeSchema
  2
AcDbDs::HandleAttribute
280
     7
 91
        1
284
     1
  0
XRECORD
  5
35C
102
{ACAD_REACTORS
330
35B
102
}
330
35B
100
AcDbXrecord
280
     1
102
DISPLAYNAME
  1
Imperial24
102
FLAGS
 90
        0
  0
XRECORD
  5
358
102
{ACAD_REACTORS
330
357
102
}
330
357
100
AcDbXrecord
280
     1
102
DISPLAYNAME
  1
Metric50
102
FLAGS
 90
        0
  0
XRECORD
  5
31F
102
{ACAD_REACTORS
330
31E
102
}
330
31E
100
AcDbXrecord
280
     1
102
SHADEPLOT
 70
     0
102
SHADEPLOTRESLEVEL
 70
     2
102
SHADEPLOTCUSTOMDPI
 70
   300
  0
XRECORD
  5
321
102
{ACAD_REACTORS
330
320
102
}
330
320
100
AcDbXrecord
280
     1
102
SHADEPLOT
 70
     0
102
SHADEPLOTRESLEVEL
 70
     2
102
SHADEPLOTCUSTOMDPI
 70
   300
  0
XRECORD
  5
31C
102
{ACAD_REACTORS
330
205
102
}
330
205
100
AcDbXrecord
280
     1
102
SHADEPLOT
 70
     0
102
SHADEPLOTRESLEVEL
 70
     2
102
SHADEPLOTCUSTOMDPI
 70
   300
  0
XRECORD
  5
323
102
{ACAD_REACTORS
330
1F9
102
}
330
1F9
100
AcDbXrecord
280
     1
102
MATERIAL
148
0.0
149
0.0
149
0.0
 93
        0
 94
       63
282
     0
 72
     1
 77
     1
171
     1
175
     1
179
     1
273
     0
  0
XRECORD
  5
1FA
102
{ACAD_REACTORS
330
1F9
102
}
330
1F9
100
AcDbXrecord
280
     1
 70
     1
 90
429727718
  1
D62C5603-E3A1-4AEA-B7FB-FE5D8D0755AF
310
504B03040A0000080000CC70623B3DEE336E79000000790000001B0000006175746F6465736B2D64657369676E2D7061636B6167652E786D6C3C3F786D6C2076657273696F6E3D22312E302220656E636F64696E673D227574662D3822203F3E3C666F726D6174733E3C666F726D61743E687474703A2F2F736368656D612E
310
6175746F6465736B2E636F6D2F64657369676E2D7061636B6167652F323030393C2F666F726D61743E3C2F666F726D6174733E504B0304140006080800CC70623BD486FD9CA0000000F4000000130000005B436F6E74656E745F54797065735D2E786D6C7D8EC10E82300C865F65E91D8A1E8C310C0EEA1BF002731658846E
310
D98AC1B77784ABF1D8FE5FBFBF75BBCE937A534CCEB38643598122B6FEE978D0B0485F9C41B54DDD7D022595594E1A469170414C76A4D9A4D207E29CF43ECE46F218070CC6BECC4078ACAA135ACF422C856C0E68EA1BF5669944DDD7BCDE7B1F8E415D77AECB980613C2E4AC91FC167A2B244592486606FC29C8FD7F045B9A
310
EF7053A7E60B504B0304140006080800CC70623B853B8169EB0000007C01000008000000636F72652E786D6C8D90416EC3201045AF62CDB6C206821CC7C244919D9CA01740401C94182C03558F5F9C3852BBEB6A467FFE9B197D7EFC9E1EC5975982F5AE035262288C535E5B377690E21535501C055FBC8FBF6C503839990E
310
5619041F179FE64D52DE45E362569DD7661365082642A11EB9E920A89B99642953CC8E702F67A9EE7234257977194EC9EAE275C4EABCCF5EAD5940D4AC6F0E35A568B8F43562CD7046CD199FD07E60174276A7BE677B5EADB0E0D14EEFFB6A31321A0D82627C4084204C3F096B71DD52F6819B16635EADF63F509AF53FA164
310
5DDCD1EDDD17164090FCC8732078B56691CB33A85CD7DCC40F504B0304140006080800CC70623B55019EA25F0000007C00000007000000636E782E786D6C4DCB3B0E80201045D1AD90E915ED2CF8AC45050C11660C8261F98AB1B07AC9C97D42D718D865D3E909258CFD00CCE24AC6E326A164D74DC0B4128928FF32603847
310
2BA13128B1252AC747C6BAB984FC68F0B87FE8960A5C09FE86CFB69FBA01504B0304140006080800CC70623BDBABAAF470010000D40300000C0000006662782F636F72652E786D6CC553D16E823014FD95A6AF4B694182CC941A83FA05FB810A9511A125A5257EFE2E82712ECEB8A7F100CD39F7F69E734AF9FADC366850B6
310
AF8DCE7018308C942E4C59EB2AC3DE1D498AD15A706B8CFB56869196ADCAF00863C12B6B7C374385D14E6907A836A59A41D9F7CA615434B0C8705F7CAA5606D23BA8E84F41278B93AC54100640439DE0BDB320004D43C63716C7C399D30917DCFBBA9CD9BA8469F5B156168B24CED3F7248AC8769F27244EB73B92EED8862C
310
B7F13E0C179B3C8F979C8ECD82BBBABDAA2BAC924E9558448CBD9330242CFA08E3154B5651FCC6D215639C8EE5774DBE2B5F6CF2B5768B68963BB5F5588420E442FC700B1139D4CB01F450C1E918227C2E09DF070D8140C84E1E9AAB8F1340832A9CB13130A5F1376A908D57309505ECF2A0DF179C4E9D30F5B239B87E3823
310
7A79C6F31DE1A8A5AEC08474B03C7837EAE4938639B44E5932B833D2C6B6B279CDC613877FA26EE21F4A2A4C63EC7F29A2F301D1F9F7A0E37D145F504B0304140006080800CC70623B9C113CC27E0000009D0000000B0000006662782F636E782E786D6C4DCCDF0A83201C86E15B91DFB94BFB330DD428C8FB886521330DA7
310
6397BF1A1DECE883878F57749FCDA1B7892F1BBC047A23808C7F84D9FA55424E0BE6803A256208E9EF06C84F9B91703228B1C690F78B66B34CD9A5439DF5CF0BFBF65E35BCA1B8D6A5C6F540381E886698B5741C695F9503EBA150A2F8958E3DC3EA0B504B0304140006080800CC70623B7DF2F77C2A010000120200003100
310
00006662782F41393633353835312D344632462D344230382D423046372D3739314545314133324237412F636F72652E786D6C8D51DB8EC22014FC15C2939B0D2DB4B45643319AE817EC0F6041255A68B86CFCFC856D4D76DF7CE190393373060EDB3DC707F856CE6B6B7A480A0C81328395DA5C7B18C3057510EC3873D686
310
3F34088C18550F330C39BB3A1BA7051AAC09CA84841A2BD5020AEF55806078A44B0FFD7053A328440C89E1EFC52486BBB8AA8214A99D789CF9E05200300FC927E4FB4D5B375D43103D5527440FB843077C5AA3F5861C8F645F5787F59E95B390B318B55CE45AA638FAA2957BD7248B390B7A7CC51F9C124149C82B8C378810
310
84AB2F42B7B8DD56F413775B8C5999E9FF4471926F8AA236A1AE96B8B3CC434E5839373893369E1FAF30EA395917409EB7F26AF8801C171837A4A6AC9C89E9F9C9B1A58BA30FD6A5EF5DDDCF894B9AD9B6A59C957943A9FCAE2FD5BC4DFE03504B0304140006080800CC70623BAD7543B64E01000033030000300000006662
310
782F41393633353835312D344632462D344230382D423046372D3739314545314133324237412F636E782E786D6CD593CD6EC32010845F0571AD6CE3D48AD20813A9873E410FBD12D82434182C7EAAE6EDBB2424CD25871E7B41D6EC30B3FA84F9E67BB2E40B4234DE8DB46F1925E094D7C6ED479AD3AE5951B2113C789FEE
310
6C943839C1488B4C05DF079FE72A69D8C96C13AAD6B8631503449F83828872B949AC57D26200B826A308D316B4064D6E46FCDA41C05550DC9E483A00797BFD207EFB092A45DE9514C1BBD22178396BD39D891265658C238DEA00936C654E5E433CB65A26D9F6EDB5EBC14EBF49A45CB856E66048291F6939A9A81BB5C89177
310
38143CA680F4AA299D66A042CEB3354A2684DC9D8D178FE0D9B8B41CAAD720F880EE7EF93C0C18769E099ECC04D5A102C8049A8A05632F4DDF376CF1DE0F6BB65C2F8627B65A33C6BB62177CEBBDAD973006829F89F22E814B54F4BC2BE347F8AA8F681390B50FA73F804400B5F542E796F19FF974E7F78DB802FE05E20750
310
4B0304140006080800CC70623BE75B7789680500003C100000340000006662782F41393633353835312D344632462D344230382D423046372D3739314545314133324237412F6F626A656374732E786D6CAD575B8F9B3818FD2B887D06C22499CB8AA1CA655245D5B455A356FB305264C061D8018C6C3393D95FBFC7600890
310
A4CD5EF210B0B1BFEBF98E3F7B1FF6596ABC522E1296DF9BAE3D320D9A872C4AF2F8DE2CE5CEBA358D0FBEC719939D65A691938CDE9B6ADAF4BD98B3B2D05311DD91329583D9D5FC0F438434A7A611A644887B5384CF34233629258BA878B12322891DEFF6B66BD70BFB62634E8AE781D082709A4B588AF91C528CDA28B73F
310
1C998EEF39EABBEFA97FBD6A7C7E9553F9D3D79FE442923C3C523610337627CB87ABE99D359D4CC6D6E4FACAB5E6ABF9D2726FC6A3C5F56271377BB88362213924694B38DD99FE47C48627A1E7D49F5A8BB5E1A74C0A599ED3B0F21F1E56366B89112D681E218F0915D0D6F17AD41FBA2A369DCF6335D62ABBD39779D5DDD1
310
11D4D8DE3CBB96B2E04FB8202E41051754A1AA8E8F76B4C6DFE810B580B1547F4B84911149794252234D024EF8BBE963A95AE27B3D310A9D5C215C7960FAEE415ED75694C6AFB17BCACA5D99A60A9AA65F217B0BFC53292ACB92BF283FAD0D3621576592CB5BED907C2FA8E9DF794E35E97BEA31BED21FEB401ABB94C44839
310
DCACBF0E1C5DA8DA5B2F4DFFD32AD86F543D9E565E7056502E157C00AD2671CD534549AB752FCA9CDA00677A313F04E51B22FF19E57B300579E3C97EB29F682D92935CEC18CF901B7B54FD8C51F362B56FC72FE0B3C1EAE335EDCCBF5AEC39ADB17DC238973F804BA5E6F6BFE7AF1FB32E523BE9F3BD571418E3631DCA4D48
310
5250CF639223210A9446CA30052EDF057BD35F8329C1ECD84552BF0DC8D18BE7BCE23BFE6BD960AB4A7DE79923A103BEBD80F911CBAA2C60DB19B01CF164A5583B772EE6D3FFA56666CBCDA74DC97724A48F9A58967497E489C4D979006FD7A05E227A1EBDD0F737C623387A9C844D3709995625106D157315F8B8392CD4E0
310
A0B9A720C4BE9829CEF37EA1E13111214D53925356365ADA634861B52519DD27A00AEB808EAF0628E6F435519D446F45CF2C9CF5214F0A15B2F6D06B79DA3EE3CBF7F56780D2F4E7EF73A0F5E5B02A38D07DC852C6B7C1FBB6664213E0C39E3EBA7FF4E1AD23EA2829407C85E586727488B751B2DB9502BC7B228A3FD68B6E
310
A65A22397E690AA8D158D7E404EC8CDA235CC3B7D1898680131CEC2CDF2638C65196279577750F15884AEE19F94199155B92B13297978469D4F8D358DF0AEF7631E28DC8F0D9F437D5D39A83B2231A1D52D543813A824EF8D44BCFF2FA6A31BD1E8DAD87F1CCB526B3879935BF59CDADD5C37479BB1CDD4CA7B3556B516589
310
EF352754B706114D9C885EC9131DE6EFEB43D99AFE2391C2F958179413D7CFEF6B1B6DB1E7600F00DE6E5C67454A339A4BA2E0FBA85ED26F045D454F463DBFCE484C2F90F2E5E3666003662ED8F755951A7D1BECD5B30B550B2785C8E7320B7292A4838DDA71BBC863ED7613CAF659337A3354231D4FF4A182A54904C2898C
310
98B28C4AD0CE056CCF332A80986E571EE9DBC305BB5FEB7E509220A58D25CF042D712A806AC0AD0C657FDEF80D2D9CEAA2EE4D1C76F60BFE74219A06527D6F82DF6412526107381E55E353090704D085B52408A8913C4ED159D79BDA71BB4BC506F4831350EB6F975CD22D69BF7AC49B91A2C0A9DDA3D5CA36AD20FC478E37
310
E61844E2352865EBCB61A275A65283CAAA9DD27703B4102F5AF51EF5F573B75CBB5AD38BC845F7A49F82A0966A49C2E3EA5EA0ECD326CD965F1DB402C6FA8B51A4658C5C5E2EC9E214602E55810345408596591009A82E7E7FFACA19EEA299B14A0081A705CB3296EBC14CDF658DCD336EA6D1136881AAEB87B81AB9EE53D5
310
F5EB8BC8362082DA24122F98680A4E7930C01A0079749CEA14382A0783E5EBA5A10F8C098456A03D6A4AEB6BB881E2513747552A5DB22C7EDAF83BD5528081A365F7FF06504B0304140006080000CC70623B000000000000000000000000350000006662782F41393633353835312D344632462D344230382D423046372D37
310
39314545314133324237412F76657274696365732E62696E504B0304140006080800CC70623BF270F1330600000004000000360000006662782F41393633353835312D344632462D344230382D423046372D3739314545314133324237412F747269616E676C65732E62696E636660600000504B0304140006080000CC7062
310
3B000000000000000000000000370000006662782F41393633353835312D344632462D344230382D423046372D3739314545314133324237412F617474726962757465732E62696E504B0304140006080800CC70623B08DA0BD19000000041010000360000006662782F41393633353835312D344632462D344230382D4230
310
46372D3739314545314133324237412F6469726563746F72792E786D6C858F410AC3201045AF22B36F53E9A60B35CBEEBAE80D244E44489C6234F4F835464A48035D0DF398FF9F8AF63D0E6CC63039F212F8F9020C7D47C6792B21C5FE7403D62A1188E2E60C98D7234A5830286103A55745067B9D86B8A3CF9C7F90C11DE6
310
07FB144396D7B6A82D282E9A152AD114D5EF2CB866EEE831B8EEA07A7BB5A8D7D61A2BAAEB7FD5F70921FF497D00504B0304140006080800CC70623BEDD1DC58FD000000A00100003B0000006662782F41393633353835312D344632462D344230382D423046372D3739314545314133324237412F7265736F75726365732F
310
636F72652E786D6C8D504B6E833010BD0A9A6D65B00922041947112427E8052C33A156828DFCA97AFC9A40A576D7CDCCE87D344F8F9FBFE667F689CE6B6B3A6039850C8DB2A336530731DC4903D95970676DF82583CCC8193B5861107C72362E3BA4AC096842428D1D7107A5F7182053CF7474E0D507CE32973124857FE48B
310
540F3961CEF244279DE03EB81420DB9EAC1384436FA353E879B1B182C7A8C75DA3C7F453DF353A1075D537A7BA6464B8F535A99AE14A9A2BBD90E350DD183B5CFABE3AF262350B1EF4FC9351399401471025A527C218A1E53BAB5A5AB765F5469B96525EACF23FA6B88CFF34456DC2A1DCE36E360F82A5202F42F062ED2BAD
310
579969AFDD8A6F504B010214000A0000080000CC70623B3DEE336E79000000790000001B00000000000000000000000000000000006175746F6465736B2D64657369676E2D7061636B6167652E786D6C504B01021400140006080800CC70623BD486FD9CA0000000F40000001300000000000000000000000000B20000005B
310
436F6E74656E745F54797065735D2E786D6C504B01021400140006080800CC70623B853B8169EB0000007C010000080000000000000000000000000083010000636F72652E786D6C504B01021400140006080800CC70623B55019EA25F0000007C000000070000000000000000000000000094020000636E782E786D6C504B
310
01021400140006080800CC70623BDBABAAF470010000D40300000C00000000000000000000000000180300006662782F636F72652E786D6C504B01021400140006080800CC70623B9C113CC27E0000009D0000000B00000000000000000000000000B20400006662782F636E782E786D6C504B01021400140006080800CC70
310
623B7DF2F77C2A010000120200003100000000000000000000000000590500006662782F41393633353835312D344632462D344230382D423046372D3739314545314133324237412F636F72652E786D6C504B01021400140006080800CC70623BAD7543B64E010000330300003000000000000000000000000000D2060000
310
6662782F41393633353835312D344632462D344230382D423046372D3739314545314133324237412F636E782E786D6C504B01021400140006080800CC70623BE75B7789680500003C10000034000000000000000000000000006E0800006662782F41393633353835312D344632462D344230382D423046372D3739314545
310
314133324237412F6F626A656374732E786D6C504B01021400140006080000CC70623B0000000000000000000000003500000000000000000000000000280E00006662782F41393633353835312D344632462D344230382D423046372D3739314545314133324237412F76657274696365732E62696E504B01021400140006
310
080800CC70623BF270F133060000000400000036000000000000000000000000007B0E00006662782F41393633353835312D344632462D344230382D423046372D3739314545314133324237412F747269616E676C65732E62696E504B01021400140006080000CC70623B0000000000000000000000003700000000000000
310
000000000000D50E00006662782F41393633353835312D344632462D344230382D423046372D3739314545314133324237412F617474726962757465732E62696E504B01021400140006080800CC70623B08DA0BD1900000004101000036000000000000000000000000002A0F00006662782F41393633353835312D344632
310
462D344230382D423046372D3739314545314133324237412F6469726563746F72792E786D6C504B01021400140006080800CC70623BEDD1DC58FD000000A00100003B000000000000000000000000000E1000006662782F41393633353835312D344632462D344230382D423046372D3739314545314133324237412F7265
310
736F75726365732F636F72652E786D6C504B0506000000000E000E0080040000641100000000
  0
XRECORD
  5
322
102
{ACAD_REACTORS
330
1F7
102
}
330
1F7
100
AcDbXrecord
280
     1
102
MATERIAL
148
0.0
149
0.0
149
0.0
 93
        0
 94
       63
282
     0
 72
     1
 77
     1
171
     1
175
     1
179
     1
273
     0
  0
XRECORD
  5
1F8
102
{ACAD_REACTORS
330
1F7
102
}
330
1F7
100
AcDbXrecord
280
     1
 70
     1
 90
429727718
  1
30362254-06B7-45E0-A893-8CFA70E3D6BC
310
504B03040A0000080000CC70623B3DEE336E79000000790000001B0000006175746F6465736B2D64657369676E2D7061636B6167652E786D6C3C3F786D6C2076657273696F6E3D22312E302220656E636F64696E673D227574662D3822203F3E3C666F726D6174733E3C666F726D61743E687474703A2F2F736368656D612E
310
6175746F6465736B2E636F6D2F64657369676E2D7061636B6167652F323030393C2F666F726D61743E3C2F666F726D6174733E504B0304140006080800CC70623BD486FD9CA0000000F4000000130000005B436F6E74656E745F54797065735D2E786D6C7D8EC10E82300C865F65E91D8A1E8C310C0EEA1BF002731658846E
310
D98AC1B77784ABF1D8FE5FBFBF75BBCE937A534CCEB38643598122B6FEE978D0B0485F9C41B54DDD7D022595594E1A469170414C76A4D9A4D207E29CF43ECE46F218070CC6BECC4078ACAA135ACF422C856C0E68EA1BF5669944DDD7BCDE7B1F8E415D77AECB980613C2E4AC91FC167A2B244592486606FC29C8FD7F045B9A
310
EF7053A7E60B504B0304140006080800CC70623B1EC5D7A3EB0000007C01000008000000636F72652E786D6C8D90416EC3201045AF82665B6103C6756C6122AB4D4ED00B204C5C94182C03558F5F9C3852BBEB6A467FFE9B197D71FC9E6FE8CBACC17AD7032D0820E3B41FAD9B7A48F1820F808E52ACDEC75F36404ECDA687
310
4D0629A6D5A76597B477D1B89855E747B38B2A041301E95B6E7A08FAD3CCAA50296647B8168BD2573599823EBB0CA76447F43862C7BCCF5EAC59410E4DDD9C7973C2755553CCCFA4C603E3040F1565ED3B1FDE4E432BCA0D9622DAF9795FAF464533826484B498524CD807E51D79ED187F21878E10516EF63F505AC67F42C9
310
BA58B1FDDD071640D2FCC87D2045B96591CB3DA85CB7DCE40F504B0304140006080800CC70623B55019EA25F0000007C00000007000000636E782E786D6C4DCB3B0E80201045D1AD90E915ED2CF8AC45050C11660C8261F98AB1B07AC9C97D42D718D865D3E909258CFD00CCE24AC6E326A164D74DC0B4128928FF32603847
310
2BA13128B1252AC747C6BAB984FC68F0B87FE8960A5C09FE86CFB69FBA01504B0304140006080800CC70623B8C9102E971010000D40300000C0000006662782F636F72652E786D6CC5535B6E833010BC8AE5DF0A6C08340F1947A84D4ED00B38C6A128602363A31CBFCB234A53A551FA553EC09AD9F5CE8C31DB9E9B1AF5CA
310
7695D1198E428A91D2D214952E33ECDD315861B4E5CC1AE3BE9561A445A3323CC098B3D21ADFCE9034DA29ED00D5A6503328BA4E398C640D8B0C77F253352214DE4145770A5B214FA2546114020D759C75CE8200340D19DE981F0F6746269C33EFAB6266AB02A655C74A59CCF365BADC27CB5D902ED22848F6340DF238A141
310
BE88E2F57B92BFEDF23523433367AE6A2EEAA455C2A902F398D2751045018D3FA264435F3771F242571B4A1919CA6F9A7C5B3CD9E42BED16F12C776AEB308F40C848FC700B1139D4891EF410CEC810227CC6846F8386402064270EF5C5C709A05E49676C024C61FC95EA45ED154CA5211D1FF4FB8291A913A68E9B83EBBB33
310
E2A7673CDE118E5AE8124C0807CB8377834E366998436B950D7A7746DAD846D4CFD978E0F04FD455FC5D49D2D4C6FE9722321F10997F0F32DC47FE05504B0304140006080800CC70623BFFEA85907E0000009D0000000B0000006662782F636E782E786D6C4DCCD10A83201886E15B91FFDC95D95A811AB6F23E625948A6C3
310
E9D8E5AF46073BFAE0E1E365ED67B3E8ADC3CB78C7815C7240DA3DFC64DCC221C519D7805AC182F7F1EF06C88D9BE6703008B6049F9E274D7A1E938DBB5AE3D6131B2589BA0D3D965551E0B2EA732C9B9A624AAEB41E3A557677029960D9AFB4EF11165F504B0304140006080800CC70623B4FEEA4082C0100001202000031
310
0000006662782F39464131463745442D413632322D343644302D413938332D3331353338454246344243312F636F72652E786D6C8D515B6EC32010BC0AE2AB55850DD871ED0813254D72825EC00192A2C460F1A872FC42ED48ED5F7E00CDCECCCEB26C731F6FE05B39AFADE921293004CA082BB5B9F43086336A21D870E6AC
310
0D7F68109861543DCC30E4ECE26C9C164858139409093556AA051CBC570102714B8F1E7AF1A5C6A11862480C7F2DA6415C878B2A4891CA89C7990F2E050073937C42DE1DB7E4F87ED8A36D4329AA9B3D46DBAEAD504556557BD81DEBDD0761E52CE42C462D17B996298E3E6BE59E35C962CE821E1FF18553435012728A7187
310
0841987E927A8D9B35ADDF70BBC6989599FE4F1427F9A4286A132ABAC49D651EF234CD5CE04CDA78BA3DC2A8FB645D00B9DF8B57E215725C60BCA2A463E54C4CE327C7A65E1C7DB02E7DEFCBF594B864C5CA6CDBD49C957943E9FA5D5FBAF336F90F504B0304140006080800CC70623BAD7543B64E01000033030000300000
310
006662782F39464131463745442D413632322D343644302D413938332D3331353338454246344243312F636E782E786D6CD593CD6EC32010845F0571AD6CE3D48AD20813A9873E410FBD12D82434182C7EAAE6EDBB2424CD25871E7B41D6EC30B3FA84F9E67BB2E40B4234DE8DB46F1925E094D7C6ED479AD3AE5951B2113C
310
789FEE6C943839C1488B4C05DF079FE72A69D8C96C13AAD6B8631503449F83828872B949AC57D26200B826A308D316B4064D6E46FCDA41C05550DC9E483A00797BFD207EFB092A45DE9514C1BBD22178396BD39D891265658C238DEA00936C654E5E433CB65A26D9F6EDB5EBC14EBF49A45CB856E66048291F6939A9A81BB5
310
C8917738143CA680F4AA299D66A042CEB3354A2684DC9D8D178FE0D9B8B41CAAD720F880EE7EF93C0C18769E099ECC04D5A102C8049A8A05632F4DDF376CF1DE0F6BB65C2F8627B65A33C6BB62177CEBBDAD973006829F89F22E814B54F4BC2BE347F8AA8F681390B50FA73F804400B5F542E796F19FF974E7F78DB802FE05
310
E207504B0304140006080800CC70623B16AB87BA640500003C100000340000006662782F39464131463745442D413632322D343644302D413938332D3331353338454246344243312F6F626A656374732E786D6CAD575B6FA33818FD2B887DE6924B3BED8A326A92B68A663B534DD4D13E548A0C38942D60649B369D5FBFC7
310
600890A493BDE42160637FD7F31D7FF63E6FB3D478A55C242CBF3247B66B1A340F5994E4F19559CA8D75611A9F7D8F33263BCB4C232719BD32D5B4E97B316765A1A722BA21652A07B3B7B33F0D11D29C9A46981221AE4C113ED38CD8A4942CA2E2C58E882476BCD9DA23BB5ED8171B73523C0F841684D35CC252CCE79062D4
310
468DFA43D7747CCF51DF7D4FFDEB5593E3AB9CCA9FBEFE241792E4E19EB28198C968BAB8199F5D5A67D3E9C49A9E8F47D6EC76B6B0469F26EEFC7C3EBFBCBEB98462213924694B38DD98FE1D62C393D073EA4FADC5DAF04326852CCF6958F90F0F2B9BB5C48816348F90C7840A68EB78EDF68723159BCEE7891A6B95DDE9D3
310
BCEAEEE8086A6C6F9E5D4B59F0175C10A7A0820BAA5055C7473B5AE3CFDD452D602CD5DF12616444529E90D448938013FE6EFA58AA96F85E4F8C42275708571E98FE6827AF6B2B4AE3D7D83D64E5A64C53054DD3AF90BD06FEA9149565C94FCA0F6B834DC85599E4F2423B24DF0B6AFA979E534DFA9E7A4CC6FA631D486393
310
921829879BF5D781A373557BCB85E97FB90DB62B558F8795179C15944B051F40AB495CF35451D26A4727654E6D8033BD98EF82F21D91FF8AF2DD9982BCF1643BDD4EB516C9492E368C67C88DED563FC36D5EACF66DFF057C3658BDBFA69DF9578B3DA735B64F18C7F20770A9D45CFCF7FCF563D6456A277DBEF78A02637CA2
310
43B90A490AEAB94F72244481D24819A6C0E59B606BFA4B3025981DBB48EAB701D97BF19C577CC77F2D1B6C55A9EF3C732474C0B727303F625995056C3B02963D9EAC146BE78EC5FCEC7FA999EBC5EACBAAE41B12D27B4D2C0BBA49F244E2ECDC81B76B502F113D8F5EE8FB1BE3111CDD4FC2AA9B844CAB1288B68AB90A7CDC
310
1C166AB0D3DC5310625FCC14E779BFD0709F8890A629C9292B1B2DED31A4B0DA928CEE135085754027E3018A397D4D5427D15BD1330B677DC8934285AC3DF45A9EB68FF8F2B8FC0A509AFEECFD0FF2DE25CC6047F7214B195F07EFEB9A094D800F7BFAE8FED187B78EA8A3A400F115961BCAD1215E47C966530AF0EE8128FE
310
58CEBB996A8964FFA529A046635D9353B0336A8F700DDF46271A024E70B0B37C9DE01847591E54DED53D54202AB947E4076556AC49C6CA5C9E1226B7F1A7B1BE15DEED62C41B91E1B3E9AFAAA735036547343A925075041DF0A9979E893B391F8FCFA6967B3EFB644DCF6E5CEBFAE272625DCC6FAF3FB93793C5F90CE1EF57
310
407342756B10D1C489E8953CD1617E5CEECAD6F4EF8914CE5D5D504E5C3F1F9736DA62CFC11E00BCDDB8CC8A9466349744C1F75EBDA4DF09BA8A9E8C7A7E9991989E20E5DBDD6A6003664ED8F7A04A8DBE0DF6EAD9B9AA858342E47399053949D2C146EDB85DE4B176BB0965FBAC19BD19AA918E27FA50C1D22402E144464C
310
59462568E704B6E71915404CB72B8FF4EDE184DDAF753F284990D2C6926782963815403548A70C657FDEF80D2D9CEAA2AE4C1C76F60BFE74219A06527D6582DF6412526107381E55E353090704D085B52408D0933C4ED159D79BDA71BB4BC506F4831350EB6F979CD22D69BF7AC49B91A2C0A9DDA3D5CA36AD20FC478E37E6
310
1844E2352865EBCB6EA275A652E3836BE04EFB400BF1A2556F515F1FBB35B2AB35BD889C744FFA1004B5544B121E57F70215746DD2F5E2C1412B602CBF19455AC6C8E5E9922C4E01E65215385004546899059180EAFCF7A707CE7017CD8CDB0410789AB32C63B91E5CEBBBACB17AC6CD347A022D5075FD106377347AAABA7E
310
7D11590744509B44E205134DC1290F06580320F78E537D3D73540E06CB970B431F185308AD40BBD794D6D77003C5A36E8EAA54BA64597CD8F83BD552A080A365F7FF06504B0304140006080000CC70623B000000000000000000000000350000006662782F39464131463745442D413632322D343644302D413938332D3331
310
353338454246344243312F76657274696365732E62696E504B0304140006080800CC70623BF270F1330600000004000000360000006662782F39464131463745442D413632322D343644302D413938332D3331353338454246344243312F747269616E676C65732E62696E636660600000504B0304140006080000CC70623B
310
000000000000000000000000370000006662782F39464131463745442D413632322D343644302D413938332D3331353338454246344243312F617474726962757465732E62696E504B0304140006080800CC70623B08DA0BD19000000041010000360000006662782F39464131463745442D413632322D343644302D413938
310
332D3331353338454246344243312F6469726563746F72792E786D6C858F410AC3201045AF22B36F53E9A60B35CBEEBAE80D244E44489C6234F4F835464A48035D0DF398FF9F8AF63D0E6CC63039F212F8F9020C7D47C6792B21C5FE7403D62A1188E2E60C98D7234A5830286103A55745067B9D86B8A3CF9C7F90C11DE607
310
FB144396D7B6A82D282E9A152AD114D5EF2CB866EEE831B8EEA07A7BB5A8D7D61A2BAAEB7FD5F70921FF497D00504B0304140006080800CC70623B0D6EF93BFE000000A00100003B0000006662782F39464131463745442D413632322D343644302D413938332D3331353338454246344243312F7265736F75726365732F63
310
6F72652E786D6C8D50596E833010BD0A9ADFCA60B334011947A8694ED00B586642AC041B79A97AFC9A40A5F6AF3F33A3B7689E1E3F7DCD8FEC139DD7D6F4C0720A191A65476DA61E62B892236427C19DB5E1970C322367EC618541F0C9D9B8EC90B226A009093576C41D94DE63804C3DD2D18357379C652E63480A7FCF17A9
310
EE72C29CE5894E3AC17D702940B63D59270887DE46A7D0F36263058F518FBB468FE9A7BE6A7420864373B8D4873369AA8691FA421B3294352543C5CAF65C0F6FEF43CB8BD52C78D0F34F46E550061C419494B6843142CB0F5677F4B52BEB177AEC28E5C52AFF638ACBF84F53D42654E51E77B379102C05791282176B5F693D
310
CB4C7BED567C03504B010214000A0000080000CC70623B3DEE336E79000000790000001B00000000000000000000000000000000006175746F6465736B2D64657369676E2D7061636B6167652E786D6C504B01021400140006080800CC70623BD486FD9CA0000000F40000001300000000000000000000000000B20000005B
310
436F6E74656E745F54797065735D2E786D6C504B01021400140006080800CC70623B1EC5D7A3EB0000007C010000080000000000000000000000000083010000636F72652E786D6C504B01021400140006080800CC70623B55019EA25F0000007C000000070000000000000000000000000094020000636E782E786D6C504B
310
01021400140006080800CC70623B8C9102E971010000D40300000C00000000000000000000000000180300006662782F636F72652E786D6C504B01021400140006080800CC70623BFFEA85907E0000009D0000000B00000000000000000000000000B30400006662782F636E782E786D6C504B01021400140006080800CC70
310
623B4FEEA4082C0100001202000031000000000000000000000000005A0500006662782F39464131463745442D413632322D343644302D413938332D3331353338454246344243312F636F72652E786D6C504B01021400140006080800CC70623BAD7543B64E010000330300003000000000000000000000000000D5060000
310
6662782F39464131463745442D413632322D343644302D413938332D3331353338454246344243312F636E782E786D6C504B01021400140006080800CC70623B16AB87BA640500003C1000003400000000000000000000000000710800006662782F39464131463745442D413632322D343644302D413938332D3331353338
310
454246344243312F6F626A656374732E786D6C504B01021400140006080000CC70623B0000000000000000000000003500000000000000000000000000270E00006662782F39464131463745442D413632322D343644302D413938332D3331353338454246344243312F76657274696365732E62696E504B01021400140006
310
080800CC70623BF270F133060000000400000036000000000000000000000000007A0E00006662782F39464131463745442D413632322D343644302D413938332D3331353338454246344243312F747269616E676C65732E62696E504B01021400140006080000CC70623B0000000000000000000000003700000000000000
310
000000000000D40E00006662782F39464131463745442D413632322D343644302D413938332D3331353338454246344243312F617474726962757465732E62696E504B01021400140006080800CC70623B08DA0BD190000000410100003600000000000000000000000000290F00006662782F39464131463745442D413632
310
322D343644302D413938332D3331353338454246344243312F6469726563746F72792E786D6C504B01021400140006080800CC70623B0D6EF93BFE000000A00100003B000000000000000000000000000D1000006662782F39464131463745442D413632322D343644302D413938332D3331353338454246344243312F7265
310
736F75726365732F636F72652E786D6C504B0506000000000E000E0080040000641100000000
  0
XRECORD
  5
324
102
{ACAD_REACTORS
330
173
102
}
330
173
100
AcDbXrecord
280
     1
102
MATERIAL
148
0.0
149
0.0
149
0.0
 93
        0
 94
       63
282
     0
 72
     1
 77
     1
171
     1
175
     1
179
     1
273
     0
  0
XRECORD
  5
175
102
{ACAD_REACTORS
330
173
102
}
330
173
100
AcDbXrecord
280
     1
270
     1
271
     1
  0
XRECORD
  5
174
102
{ACAD_REACTORS
330
173
102
}
330
173
100
AcDbXrecord
280
     1
270
     1
271
     1
  0
XRECORD
  5
1FB
102
{ACAD_REACTORS
330
173
102
}
330
173
100
AcDbXrecord
280
     1
 70
     0
 90
1673772943
  1
ECE7A1D2-D628-4531-984C-D00F80459256
310
504B03040A0000080000CC70623B3DEE336E79000000790000001B0000006175746F6465736B2D64657369676E2D7061636B6167652E786D6C3C3F786D6C2076657273696F6E3D22312E302220656E636F64696E673D227574662D3822203F3E3C666F726D6174733E3C666F726D61743E687474703A2F2F736368656D612E
310
6175746F6465736B2E636F6D2F64657369676E2D7061636B6167652F323030393C2F666F726D61743E3C2F666F726D6174733E504B0304140006080800CC70623BD486FD9CA0000000F4000000130000005B436F6E74656E745F54797065735D2E786D6C7D8EC10E82300C865F65E91D8A1E8C310C0EEA1BF002731658846E
310
D98AC1B77784ABF1D8FE5FBFBF75BBCE937A534CCEB38643598122B6FEE978D0B0485F9C41B54DDD7D022595594E1A469170414C76A4D9A4D207E29CF43ECE46F218070CC6BECC4078ACAA135ACF422C856C0E68EA1BF5669944DDD7BCDE7B1F8E415D77AECB980613C2E4AC91FC167A2B244592486606FC29C8FD7F045B9A
310
EF7053A7E60B504B0304140006080800CC70623BD9DDAED0EC0000007C01000008000000636F72652E786D6C8D90416EC3201045AF82665B61836D9CD8C2444DD39CA01740405C94182C03558F5F9C3852BBEB6A467FFE9B197D7EF89E6EE8CB2CC17A37002D0820E394D7D68D03A478C17B4007C117EFE32F1B20272733C0
310
2A83E0E3E2D3BC49CABB685CCCAAF3DA6CA20CC14440EA969B0182FA34932C648AD911AEC52CD5558EA6A0CF2EC329598D1E47ACCEFBECC59A050463A7EA5833865FEBDD0E37353BE3EE8DBDE3F6786A48D375FBF6CC78B9C282473B3DEFABC5C86834888A900E538A49F5419B9EB47DD5BC907D4F082F57FB1F28CDFA9F50
310
B22ED6D5F6EE030B20687EE43E10BC5CB3C8E51E54AE6B6EE207504B0304140006080800CC70623B55019EA25F0000007C00000007000000636E782E786D6C4DCB3B0E80201045D1AD90E915ED2CF8AC45050C11660C8261F98AB1B07AC9C97D42D718D865D3E909258CFD00CCE24AC6E326A164D74DC0B4128928FF326038
310
472BA13128B1252AC747C6BAB984FC68F0B87FE8960A5C09FE86CFB69FBA01504B0304140006080800CC70623BA24EB22D72010000D40300000C0000006662782F636F72652E786D6CC5535B6E833010BC8AE5DF0A6C5E49888CA3A6694ED00B38E05014B091B1518EDFE511A5A9D228FD2A1F60CDEC7A67C6986DCE4D8D7A
310
69BA4AAB0C073EC548AA5C17952A33ECECD15B61B4E1CC686DBF9561A44423333CC098B3D268D7CE50AE9595CA02AA74216750749DB418E5352C32DCE59FB211BE70162ABA93DF8AFC244AE9073ED050C759670D0840D390E18DF9F1706664C23973AE2A66B62A605A75ACA4C13C4976E1364A12EF355A2EBD384AF65EFA96
310
BC7B8BED2EA6719AAE16FB8491A199335B351775B991C2CA02F390D2D40B028F861F41BCA68B7518BFD0D59A524686F29B26D7164F36B94AD9289CE54E6D1DE6010819891F6E21228B3AD1831EC219194284CF98F06DD01008846CC5A1BEF83801D4CBDC6A1303536877A57A513B0953A94FC707FDBE6064EA84A9E3E6E0FA
310
EE8CF0E9198F7784A316AA0413C2C2F2E0ECA0934D1AE6D05A69BCDE9E91D2A611F573361E38FC1375157F5752AE6B6DFE4B11990F88CCBF0719EE23FF02504B0304140006080800CC70623B408A7D3B7C0000009D0000000B0000006662782F636E782E786D6C4DCCD10A83201886E15B91FFDC552A92A0064DBC8F581632
310
D3703A76F9ABD1C18E3E78F878E5F0D9027ABBFCF2292AE86E2D20171F69F6715550CB827B40839639A5F2770314A7CD293819B45C73AAFB45B35BA61ACAA1C1C7E7855C58C15BC331339661262CC762340413D68D77DA5B42298546CBE6573AF60CEB2F504B0304140006080800CC70623B449FB9BD290100001202000031
310
0000006662782F36394639363044362D344446342D343946362D394244322D3234314243333846323333332F636F72652E786D6C8D515B6EC32010BC0AE22B55850D98B871848994463E412FE002495162B07854397EA176A4F62F3F2C9A9D991D587EB84F37F0AD7D30CEF6905418026DA553C65E7A98E219ED203808EE9D
310
8B7F6810D871D23D2C3014FCE25D9A57483A1BB58D19B54EE9151C43D0110279CB971E06F9A5A7B11A53CC8C70ADE6515EC78BAE4895DB992778883E0700CB907242D17643D7E2538BD869608875438BBAE38922CAC8F1BDD90DB4691A5E2F42C153326A951B95E398B3D1FE599322163C9AE9115F7A3D46ADA0A018778810
310
84E907617BDCEE297BC5BB3DC6BC2EF47FA234AB2745C9D8D8D035EE220B50105E2F0DC1954B9FB747187D9F9D8FA0CCDB042D5FA0C015C65B42DF78BD10F3F3B363CB56C7109DCFDFBBB97E662ED92EB62D13BC2E1BCAE5777DB9966D8A1F504B0304140006080800CC70623BAD7543B64E01000033030000300000006662
310
782F36394639363044362D344446342D343946362D394244322D3234314243333846323333332F636E782E786D6CD593CD6EC32010845F0571AD6CE3D48AD20813A9873E410FBD12D82434182C7EAAE6EDBB2424CD25871E7B41D6EC30B3FA84F9E67BB2E40B4234DE8DB46F1925E094D7C6ED479AD3AE5951B2113C789FEE
310
6C943839C1488B4C05DF079FE72A69D8C96C13AAD6B8631503449F83828872B949AC57D26200B826A308D316B4064D6E46FCDA41C05550DC9E483A00797BFD207EFB092A45DE9514C1BBD22178396BD39D891265658C238DEA00936C654E5E433CB65A26D9F6EDB5EBC14EBF49A45CB856E66048291F6939A9A81BB5C89177
310
38143CA680F4AA299D66A042CEB3354A2684DC9D8D178FE0D9B8B41CAAD720F880EE7EF93C0C18769E099ECC04D5A102C8049A8A05632F4DDF376CF1DE0F6BB65C2F8627B65A33C6BB62177CEBBDAD973006829F89F22E814B54F4BC2BE347F8AA8F681390B50FA73F804400B5F542E796F19FF974E7F78DB802FE05E20750
310
4B0304140006080800CC70623B8D05915C650500003B100000340000006662782F36394639363044362D344446342D343946362D394244322D3234314243333846323333332F6F626A656374732E786D6CAD575B6FA33814FE2B887D06429276DA1565D4266D158D3A339A6846FB502932E050B66023DB74D2FDF5FB190C01
310
9276B2973C046C8ECFF53B17071F77456EBD502133CEAE6CDF9DD81665314F32965ED995DA3A17B6F5310C04E7AA47665B8C14F4CAD6DB7618A48257A5D94AE89654B91AEDDEDDFC61C998326A5B714EA4BCB265FC440BE2924AF184CA6737218AB8E976E7FA6E4338649B0A523E8D98964450A6A029F619B8588D52FE7039
310
B1BD30F0F4F730D0FF866AF6369557DB33949F31A9088B0F848DD8CCFCF9F2767A76E99CCDE733677E3EF59D9BBB9BA5E37F984D16E78BC5E5F5ED25044B25C0C96822E8D60EEFE11B91C581D77CEA34368A1F5329E68CD1B8B61F16D63A1B8E092D294B10C78C4A48EB593D192E7DED9BDEE7995E1B91FDEDD3ACEA9FE831
310
6A756F9F7D4D79F4274C90A7A04248AA51D5F8C718DAE06FB2F75AC4796EBE65D22A88A22223B995679120E2D50E41AA49C260C046A35368846B0BECD0DFF3EBEB8AD4F835768F69B9ADF25C43D30E6B646F807FAA64AD59F61715C7A54127C4AACA98BA3006A9D792DAE165E0D59B61A01FB3A9F9D838D2DAE62445C86166
310
F37564E842E7DE6A69879FEEA2DD5AE7E371E1A5E025154AC307D06A03D73EB5978C58FFA4C8E9033066E0F3BD53BEC1F39F91BE7B55103791EDE6BBB991A2046172CB4581D8B893FA674DDA17A77B3B7C413D1B511FD2743BFF8A38F03A658705E3ADF8015C3A3417FF3D7E439FF591DA0B5F18BC20C1B8981957AE6392A3
310
F43C640C01D1A0B4728E2DD4F26DB4B3C3152A252A3B4E913CEC1C72F012782FF88EFF8637AA552DBEF76408E8A8DE9E50F9E1CB3A2DA0DB1B6039A893B56063DC5B3E3FFB5F72E67AB9FEB4AEC496C4F4C1149625DD662C53E89D7BF0F6151A046260D1337DFDC94502430F83B0EE07A130A224BCAD7DAE1D9FB6CD422FF6
310
920702629C4BB9AE79C12F243C6432A6794E18E5552BA56B431AAB5D91317302B2B071E86C3A42B1A02F999E24061403B5D0EB639195DA655DD3EBEAB4FB862DDF579F014AD0E73C22F99E28DA57FB98E75C6CA2D74D53086D600F4786E0FE3144B771A8A7B900F03594DB8A633CBC49B2EDB69228BB479CF863B5E807AAAB
310
23872F6DFEB4129B949CA33823F58830E86D65621E10047D9DB34D862E8EAC3C2ABC2F7B2C40D67CDFE01F5545B92105AF983AC54D93D69E56FB8E797F88913F898A9FEC705D3F9D1B54EC8426FB500D40A03BD0119B06E1B95DDC7EB8F6975367793EBD70E66733DFB9BC982F9CE564727731999F5D4ECFCE3B8D6A4DC2A0
310
6D50FD148437D110834A64C6CDDF57FBACB5C307A2A477DFE4939736CFEF2B175371E0E10CF0DD1D5C15654E0BCA14D1E87DD02FF93782A162C0A3D95F1524A52770F972BF1EE9809D13CE7DD599467F8ECE9ADD85CE85A34CD45355448C64F9E8A031DC2D596ACC6E5DD93D9B82DE2EF5CAF81363A8E47996A0DE24564A79
310
4115AACE09C55E14540231FDA13C319787134EBF34E3A022514E5B4D9E0826E25C02D5805B15ABE1BEF51B26383D445DD9E875EE33FE4C22DA16427D65A3BCA92CA6D28DD01DF5DC53330704308475351050232CCD31583787BA75774AFB06E5070DD0C8EF484E19968C5D83BA5B90B244D31E54D55A372320FE4786B7EA58
310
44E135AA5467CB7EA333A61683CC6A8C3257034C10CF46F40EF9F5BE59BE5BD30C3C72D235E95D10345C1D45445A5F0BB47E46A5EBE5570F9380B5FA629579952296A773720405982B9DE04011506178964401AA8BDF1FBF0A8EAB6861DD6580C0E38217056766716DAEB2D6FA0917D3E4116581EADB879C4E7CFFB11EFACD
310
3D641311495D92C8676CB409A72D18610D803CE8A626049E8EC1887CB5B44CC39883690DDA8399B4B9855B481E7D71D4A9D22F96E5BB73BF5793020C02137BF837504B0304140006080000CC70623B000000000000000000000000350000006662782F36394639363044362D344446342D343946362D394244322D32343142
310
43333846323333332F76657274696365732E62696E504B0304140006080800CC70623BF270F1330600000004000000360000006662782F36394639363044362D344446342D343946362D394244322D3234314243333846323333332F747269616E676C65732E62696E636660600000504B0304140006080000CC70623B0000
310
00000000000000000000370000006662782F36394639363044362D344446342D343946362D394244322D3234314243333846323333332F617474726962757465732E62696E504B0304140006080800CC70623B08DA0BD19000000041010000360000006662782F36394639363044362D344446342D343946362D394244322D
310
3234314243333846323333332F6469726563746F72792E786D6C858F410AC3201045AF22B36F53E9A60B35CBEEBAE80D244E44489C6234F4F835464A48035D0DF398FF9F8AF63D0E6CC63039F212F8F9020C7D47C6792B21C5FE7403D62A1188E2E60C98D7234A5830286103A55745067B9D86B8A3CF9C7F90C11DE607FB14
310
4396D7B6A82D282E9A152AD114D5EF2CB866EEE831B8EEA07A7BB5A8D7D61A2BAAEB7FD5F70921FF497D00504B0304140006080800CC70623BCA768048FE000000A00100003B0000006662782F36394639363044362D344446342D343946362D394244322D3234314243333846323333332F7265736F75726365732F636F72
310
652E786D6C8D50596E833010BD0A9ADFCA60D600328E9AA639412F609909B1126CE4A5EAF16B0295DABFFECC8CDEA2797AECF8353F924FB44E193D409E5248504B332A3D0D10FC95B4901C39B3C6F85F3248B49871801506CE266BC2B243D2688FDA47549B11775038871E12F988C7004EDE7016A9083E2ADC3D5D84BC8B09
310
D33C8D74D471E6BC8D0192EDC93A815B742658898E651BCB59086ADC356A8C3FD555A1055ED7E7E254D615792D0F075295F585746FF53B694EE78A565DD736979A65AB9933AFE69F8CD2A2F038022F28ED489E135A7CE4554F9BBEA85E68DB53CAB255FEC71496F19FA6A0B42F8B3DEE6673C0F318E4497096AD7DC5F52C33
310
EEB55BFE0D504B010214000A0000080000CC70623B3DEE336E79000000790000001B00000000000000000000000000000000006175746F6465736B2D64657369676E2D7061636B6167652E786D6C504B01021400140006080800CC70623BD486FD9CA0000000F40000001300000000000000000000000000B20000005B436F
310
6E74656E745F54797065735D2E786D6C504B01021400140006080800CC70623BD9DDAED0EC0000007C010000080000000000000000000000000083010000636F72652E786D6C504B01021400140006080800CC70623B55019EA25F0000007C000000070000000000000000000000000095020000636E782E786D6C504B0102
310
1400140006080800CC70623BA24EB22D72010000D40300000C00000000000000000000000000190300006662782F636F72652E786D6C504B01021400140006080800CC70623B408A7D3B7C0000009D0000000B00000000000000000000000000B50400006662782F636E782E786D6C504B01021400140006080800CC70623B
310
449FB9BD290100001202000031000000000000000000000000005A0500006662782F36394639363044362D344446342D343946362D394244322D3234314243333846323333332F636F72652E786D6C504B01021400140006080800CC70623BAD7543B64E010000330300003000000000000000000000000000D20600006662
310
782F36394639363044362D344446342D343946362D394244322D3234314243333846323333332F636E782E786D6C504B01021400140006080800CC70623B8D05915C650500003B10000034000000000000000000000000006E0800006662782F36394639363044362D344446342D343946362D394244322D32343142433338
310
46323333332F6F626A656374732E786D6C504B01021400140006080000CC70623B0000000000000000000000003500000000000000000000000000250E00006662782F36394639363044362D344446342D343946362D394244322D3234314243333846323333332F76657274696365732E62696E504B010214001400060808
310
00CC70623BF270F13306000000040000003600000000000000000000000000780E00006662782F36394639363044362D344446342D343946362D394244322D3234314243333846323333332F747269616E676C65732E62696E504B01021400140006080000CC70623B00000000000000000000000037000000000000000000
310
00000000D20E00006662782F36394639363044362D344446342D343946362D394244322D3234314243333846323333332F617474726962757465732E62696E504B01021400140006080800CC70623B08DA0BD190000000410100003600000000000000000000000000270F00006662782F36394639363044362D344446342D
310
343946362D394244322D3234314243333846323333332F6469726563746F72792E786D6C504B01021400140006080800CC70623BCA768048FE000000A00100003B000000000000000000000000000B1000006662782F36394639363044362D344446342D343946362D394244322D3234314243333846323333332F7265736F
310
75726365732F636F72652E786D6C504B0506000000000E000E0080040000621100000000
  0
XRECORD
  5
176
102
{ACAD_REACTORS
330
173
102
}
330
173
100
AcDbXrecord
280
     1
270
     1
271
     1
  0
XRECORD
  5
177
102
{ACAD_REACTORS
330
173
102
}
330
173
100
AcDbXrecord
280
     1
270
     1
271
     1
  0
XRECORD
  5
35A
102
{ACAD_REACTORS
330
359
102
}
330
359
100
AcDbXrecord
280
     1
102
DISPLAYNAME
  1
Imperial24
102
FLAGS
 90
        0
  0
XRECORD
  5
356
102
{ACAD_REACTORS
330
355
102
}
330
355
100
AcDbXrecord
280
     1
102
DISPLAYNAME
  1
Metric50
102
FLAGS
 90
        0
  0
CELLSTYLEMAP
  5
311
102
{ACAD_REACTORS
330
162
102
}
330
162
100
AcDbCellStyleMap
 90
        3
300
CELLSTYLE
  1
TABLEFORMAT_BEGIN
 90
        5
170
     1
 91
        0
 92
    32768
 62
   257
 93
        1
300
CONTENTFORMAT
  1
CONTENTFORMAT_BEGIN
 90
        0
 91
        0
 92
      512
 93
        0
300

 40
0.0
140
1.0
 94
        5
 62
     0
340
11
144
6.0
309
CONTENTFORMAT_END
171
     1
301
MARGIN
  1
CELLMARGIN_BEGIN
 40
1.5
 40
1.5
 40
1.5
 40
1.5
 40
4.5
 40
4.5
309
CELLMARGIN_END
 94
        6
 95
        1
302
GRIDFORMAT
  1
GRIDFORMAT_BEGIN
 90
        0
 91
        1
 62
     0
 92
       -2
340
14
 93
        0
 40
1.125
309
GRIDFORMAT_END
 95
        2
302
GRIDFORMAT
  1
GRIDFORMAT_BEGIN
 90
        0
 91
        1
 62
     0
 92
       -2
340
14
 93
        0
 40
1.125
309
GRIDFORMAT_END
 95
        4
302
GRIDFORMAT
  1
GRIDFORMAT_BEGIN
 90
        0
 91
        1
 62
     0
 92
       -2
340
14
 93
        0
 40
1.125
309
GRIDFORMAT_END
 95
        8
302
GRIDFORMAT
  1
GRIDFORMAT_BEGIN
 90
        0
 91
        1
 62
     0
 92
       -2
340
14
 93
        0
 40
1.125
309
GRIDFORMAT_END
 95
       16
302
GRIDFORMAT
  1
GRIDFORMAT_BEGIN
 90
        0
 91
        1
 62
     0
 92
       -2
340
14
 93
        0
 40
1.125
309
GRIDFORMAT_END
 95
       32
302
GRIDFORMAT
  1
GRIDFORMAT_BEGIN
 90
        0
 91
        1
 62
     0
 92
       -2
340
14
 93
        0
 40
1.125
309
GRIDFORMAT_END
309
TABLEFORMAT_END
  1
CELLSTYLE_BEGIN
 90
        1
 91
        1
300
_TITLE
309
CELLSTYLE_END
300
CELLSTYLE
  1
TABLEFORMAT_BEGIN
 90
        5
170
     1
 91
        0
 92
        0
 62
   257
 93
        1
300
CONTENTFORMAT
  1
CONTENTFORMAT_BEGIN
 90
        0
 91
        0
 92
      512
 93
        0
300

 40
0.0
140
1.0
 94
        5
 62
     0
340
11
144
4.5
309
CONTENTFORMAT_END
171
     1
301
MARGIN
  1
CELLMARGIN_BEGIN
 40
1.5
 40
1.5
 40
1.5
 40
1.5
 40
4.5
 40
4.5
309
CELLMARGIN_END
 94
        6
 95
        1
302
GRIDFORMAT
  1
GRIDFORMAT_BEGIN
 90
        0
 91
        1
 62
     0
 92
       -2
340
14
 93
        0
 40
1.125
309
GRIDFORMAT_END
 95
        2
302
GRIDFORMAT
  1
GRIDFORMAT_BEGIN
 90
        0
 91
        1
 62
     0
 92
       -2
340
14
 93
        0
 40
1.125
309
GRIDFORMAT_END
 95
        4
302
GRIDFORMAT
  1
GRIDFORMAT_BEGIN
 90
        0
 91
        1
 62
     0
 92
       -2
340
14
 93
        0
 40
1.125
309
GRIDFORMAT_END
 95
        8
302
GRIDFORMAT
  1
GRIDFORMAT_BEGIN
 90
        0
 91
        1
 62
     0
 92
       -2
340
14
 93
        0
 40
1.125
309
GRIDFORMAT_END
 95
       16
302
GRIDFORMAT
  1
GRIDFORMAT_BEGIN
 90
        0
 91
        1
 62
     0
 92
       -2
340
14
 93
        0
 40
1.125
309
GRIDFORMAT_END
 95
       32
302
GRIDFORMAT
  1
GRIDFORMAT_BEGIN
 90
        0
 91
        1
 62
     0
 92
       -2
340
14
 93
        0
 40
1.125
309
GRIDFORMAT_END
309
TABLEFORMAT_END
  1
CELLSTYLE_BEGIN
 90
        2
 91
        1
300
_HEADER
309
CELLSTYLE_END
300
CELLSTYLE
  1
TABLEFORMAT_BEGIN
 90
        5
170
     1
 91
        0
 92
        0
 62
   257
 93
        1
300
CONTENTFORMAT
  1
CONTENTFORMAT_BEGIN
 90
        0
 91
        0
 92
      512
 93
        0
300

 40
0.0
140
1.0
 94
        2
 62
     0
340
11
144
4.5
309
CONTENTFORMAT_END
171
     1
301
MARGIN
  1
CELLMARGIN_BEGIN
 40
1.5
 40
1.5
 40
1.5
 40
1.5
 40
4.5
 40
4.5
309
CELLMARGIN_END
 94
        6
 95
        1
302
GRIDFORMAT
  1
GRIDFORMAT_BEGIN
 90
        0
 91
        1
 62
     0
 92
       -2
340
14
 93
        0
 40
1.125
309
GRIDFORMAT_END
 95
        2
302
GRIDFORMAT
  1
GRIDFORMAT_BEGIN
 90
        0
 91
        1
 62
     0
 92
       -2
340
14
 93
        0
 40
1.125
309
GRIDFORMAT_END
 95
        4
302
GRIDFORMAT
  1
GRIDFORMAT_BEGIN
 90
        0
 91
        1
 62
     0
 92
       -2
340
14
 93
        0
 40
1.125
309
GRIDFORMAT_END
 95
        8
302
GRIDFORMAT
  1
GRIDFORMAT_BEGIN
 90
        0
 91
        1
 62
     0
 92
       -2
340
14
 93
        0
 40
1.125
309
GRIDFORMAT_END
 95
       16
302
GRIDFORMAT
  1
GRIDFORMAT_BEGIN
 90
        0
 91
        1
 62
     0
 92
       -2
340
14
 93
        0
 40
1.125
309
GRIDFORMAT_END
 95
       32
302
GRIDFORMAT
  1
GRIDFORMAT_BEGIN
 90
        0
 91
        1
 62
     0
 92
       -2
340
14
 93
        0
 40
1.125
309
GRIDFORMAT_END
309
TABLEFORMAT_END
  1
CELLSTYLE_BEGIN
 90
        3
 91
        2
300
_DATA
309
CELLSTYLE_END
  0
XRECORD
  5
31D
102
{ACAD_REACTORS
330
162
102
}
330
162
100
AcDbXrecord
280
     1
102
ACAD_ROUNDTRIP_PRE2007_TABLESTYLE
 90
      512
 91
        0
  1

 92
      512
 93
        0
  2

 94
      512
 95
        0
  3

  0
XRECORD
  5
330
102
{ACAD_REACTORS
330
32F
102
}
330
32F
100
AcDbXrecord
280
     1
102
RTVSPost2010Prop28
280
     1
102
RTVSPost2010PropOp28
 70
     1
102
RTVSPost2010Prop29
280
     1
102
RTVSPost2010PropOp29
 70
     1
102
RTVSPost2010Prop30
280
     0
102
RTVSPost2010PropOp30
 70
     1
102
RTVSPost2010Prop31
280
     0
102
RTVSPost2010PropOp31
 70
     1
102
RTVSPost2010Prop32
280
     0
102
RTVSPost2010PropOp32
 70
     1
102
RTVSPost2010Prop33
280
     0
102
RTVSPost2010PropOp33
 70
     1
102
RTVSPost2010Prop34
280
     0
102
RTVSPost2010PropOp34
 70
     1
102
RTVSPost2010Prop35
280
     0
102
RTVSPost2010PropOp35
 70
     1
102
RTVSPost2010Prop36
280
     0
102
RTVSPost2010PropOp36
 70
     1
102
RTVSPost2010Prop37
 90
       50
102
RTVSPost2010PropOp37
 70
     1
102
RTVSPost2010Prop38
140
0.0
102
RTVSPost2010PropOp38
 70
     1
102
RTVSPost2010Prop39
140
1.0
102
RTVSPost2010PropOp39
 70
     1
102
RTVSPost2010Prop40
 90
        0
102
RTVSPost2010PropOp40
 70
     1
102
RTVSPost2010Prop41ColorIndex
 90
       18
102
RTVSPost2010Prop41ColorRGB
 90
        0
102
RTVSPost2010PropOp41
 70
     1
102
RTVSPost2010Prop42
 90
       50
102
RTVSPost2010PropOp42
 70
     1
102
RTVSPost2010Prop43
 90
        3
102
RTVSPost2010PropOp43
 70
     1
102
RTVSPost2010Prop44ColorIndex
 90
        5
102
RTVSPost2010Prop44ColorRGB
 90
      255
102
RTVSPost2010PropOp44
 70
     1
102
RTVSPost2010Prop45
280
     0
102
RTVSPost2010PropOp45
 70
     1
102
RTVSPost2010Prop46
 90
       50
102
RTVSPost2010PropOp46
 70
     1
102
RTVSPost2010Prop47
 90
       50
102
RTVSPost2010PropOp47
 70
     1
102
RTVSPost2010Prop48
 90
       50
102
RTVSPost2010PropOp48
 70
     1
102
RTVSPost2010Prop49
280
     0
102
RTVSPost2010PropOp49
 70
     1
102
RTVSPost2010Prop50
 90
       50
102
RTVSPost2010PropOp50
 70
     1
102
RTVSPost2010Prop51ColorIndex
 90
      256
102
RTVSPost2010Prop51ColorRGB
 90
-16777216
102
RTVSPost2010PropOp51
 70
     0
102
RTVSPost2010Prop52
140
1.0
102
RTVSPost2010PropOp52
 70
     0
102
RTVSPost2010Prop53
 90
        2
102
RTVSPost2010PropOp53
 70
     1
102
RTVSPost2010Prop54
  1
strokes_ogs.tif
102
RTVSPost2010PropOp54
 70
     1
102
RTVSPost2010Prop55
280
     0
102
RTVSPost2010PropOp55
 70
     1
102
RTVSPost2010Prop56
140
1.0
102
RTVSPost2010PropOp56
 70
     1
102
RTVSPost2010Prop57
140
1.0
102
RTVSPost2010PropOp57
 70
     1
102
RTVSPropertyOp0
 70
     1
102
RTVSPropertyOp1
 70
     1
102
RTVSPropertyOp2
 70
     1
102
RTVSPropertyOp3
 70
     1
102
RTVSPropertyOp4
 70
     1
102
RTVSPropertyOp5
 70
     1
102
RTVSPropertyOp6
 70
     1
102
RTVSPropertyOp7
 70
     1
102
RTVSPropertyOp8
 70
     1
102
RTVSPropertyOp9
 70
     1
102
RTVSPropertyOp10
 70
     1
102
RTVSPropertyOp11
 70
     1
102
RTVSPropertyOp12
 70
     1
102
RTVSPropertyOp13
 70
     1
102
RTVSPropertyOp14
 70
     1
102
RTVSPropertyOp15
 70
     1
102
RTVSPropertyOp16
 70
     1
102
RTVSPropertyOp17
 70
     1
102
RTVSPropertyOp18
 70
     1
102
RTVSPropertyOp19
 70
     1
102
RTVSPropertyOp20
 70
     1
102
RTVSPropertyOp21
 70
     1
102
RTVSPropertyOp22
 70
     1
102
RTVSPropertyOp23
 70
     1
102
RTVSPropertyOp24
 70
     1
102
RTVSPropertyOp25
 70
     1
102
RTVSPropertyOp26
 70
     1
102
RTVSPropertyOp27
 70
     1
102
RTVSPropertyOp28
 70
     1
102
RTVSPropertyOp29
 70
     1
102
RTVSPropertyOp30
 70
     1
102
RTVSPropertyOp31
 70
     1
102
RTVSPropertyOp32
 70
     1
102
RTVSPropertyOp33
 70
     1
102
RTVSPropertyOp34
 70
     1
102
RTVSPropertyOp35
 70
     1
102
RTVSPropertyOp36
 70
     1
102
RTVSPropertyOp37
 70
     1
102
RTVSPropertyOp38
 70
     1
102
RTVSPropertyOp39
 70
     1
102
RTVSPropertyOp40
 70
     1
102
RTVSPropertyOp41
 70
     1
102
RTVSPropertyOp42
 70
     1
102
RTVSPropertyOp43
 70
     1
102
RTVSPropertyOp44
 70
     1
102
RTVSPropertyOp45
 70
     1
102
RTVSPropertyOp46
 70
     1
102
RTVSPropertyOp47
 70
     1
102
RTVSPropertyOp48
 70
     1
102
RTVSPropertyOp49
 70
     1
102
RTVSPropertyOp50
 70
     1
102
RTVSPropertyOp51
 70
     0
102
RTVSPropertyOp52
 70
     0
102
RTVSPropertyOp53
 70
     1
102
RTVSPropertyOp54
 70
     1
102
RTVSPropertyOp55
 70
     1
102
RTVSPropertyOp56
 70
     1
102
RTVSPropertyOp57
 70
     1
102
RTVSPropertyOp58
 70
     1
102
RTVSPropertyOp59
 70
     1
102
RTVSPropertyOp60
 70
     1
102
RTVSPropertyOp61
 70
     1
102
RTVSPropertyOp62
 70
     1
  0
XRECORD
  5
32E
102
{ACAD_REACTORS
330
32D
102
}
330
32D
100
AcDbXrecord
280
     1
102
RTVSPost2010Prop28
280
     0
102
RTVSPost2010PropOp28
 70
     1
102
RTVSPost2010Prop29
280
     1
102
RTVSPost2010PropOp29
 70
     1
102
RTVSPost2010Prop30
280
     1
102
RTVSPost2010PropOp30
 70
     1
102
RTVSPost2010Prop31
280
     0
102
RTVSPost2010PropOp31
 70
     1
102
RTVSPost2010Prop32
280
     0
102
RTVSPost2010PropOp32
 70
     1
102
RTVSPost2010Prop33
280
     0
102
RTVSPost2010PropOp33
 70
     1
102
RTVSPost2010Prop34
280
     0
102
RTVSPost2010PropOp34
 70
     1
102
RTVSPost2010Prop35
280
     0
102
RTVSPost2010PropOp35
 70
     1
102
RTVSPost2010Prop36
280
     0
102
RTVSPost2010PropOp36
 70
     1
102
RTVSPost2010Prop37
 90
       50
102
RTVSPost2010PropOp37
 70
     1
102
RTVSPost2010Prop38
140
0.0
102
RTVSPost2010PropOp38
 70
     1
102
RTVSPost2010Prop39
140
1.0
102
RTVSPost2010PropOp39
 70
     1
102
RTVSPost2010Prop40
 90
        0
102
RTVSPost2010PropOp40
 70
     1
102
RTVSPost2010Prop41ColorIndex
 90
       18
102
RTVSPost2010Prop41ColorRGB
 90
        0
102
RTVSPost2010PropOp41
 70
     1
102
RTVSPost2010Prop42
 90
       50
102
RTVSPost2010PropOp42
 70
     1
102
RTVSPost2010Prop43
 90
        3
102
RTVSPost2010PropOp43
 70
     1
102
RTVSPost2010Prop44ColorIndex
 90
        5
102
RTVSPost2010Prop44ColorRGB
 90
      255
102
RTVSPost2010PropOp44
 70
     1
102
RTVSPost2010Prop45
280
     0
102
RTVSPost2010PropOp45
 70
     1
102
RTVSPost2010Prop46
 90
       50
102
RTVSPost2010PropOp46
 70
     1
102
RTVSPost2010Prop47
 90
       50
102
RTVSPost2010PropOp47
 70
     1
102
RTVSPost2010Prop48
 90
       50
102
RTVSPost2010PropOp48
 70
     1
102
RTVSPost2010Prop49
280
     0
102
RTVSPost2010PropOp49
 70
     1
102
RTVSPost2010Prop50
 90
       50
102
RTVSPost2010PropOp50
 70
     1
102
RTVSPost2010Prop51ColorIndex
 90
      256
102
RTVSPost2010Prop51ColorRGB
 90
-16777216
102
RTVSPost2010PropOp51
 70
     0
102
RTVSPost2010Prop52
140
1.0
102
RTVSPost2010PropOp52
 70
     0
102
RTVSPost2010Prop53
 90
        2
102
RTVSPost2010PropOp53
 70
     1
102
RTVSPost2010Prop54
  1
strokes_ogs.tif
102
RTVSPost2010PropOp54
 70
     1
102
RTVSPost2010Prop55
280
     0
102
RTVSPost2010PropOp55
 70
     1
102
RTVSPost2010Prop56
140
1.0
102
RTVSPost2010PropOp56
 70
     1
102
RTVSPost2010Prop57
140
1.0
102
RTVSPost2010PropOp57
 70
     1
102
RTVSPropertyOp0
 70
     1
102
RTVSPropertyOp1
 70
     1
102
RTVSPropertyOp2
 70
     1
102
RTVSPropertyOp3
 70
     1
102
RTVSPropertyOp4
 70
     1
102
RTVSPropertyOp5
 70
     1
102
RTVSPropertyOp6
 70
     1
102
RTVSPropertyOp7
 70
     1
102
RTVSPropertyOp8
 70
     1
102
RTVSPropertyOp9
 70
     1
102
RTVSPropertyOp10
 70
     1
102
RTVSPropertyOp11
 70
     1
102
RTVSPropertyOp12
 70
     1
102
RTVSPropertyOp13
 70
     1
102
RTVSPropertyOp14
 70
     1
102
RTVSPropertyOp15
 70
     1
102
RTVSPropertyOp16
 70
     1
102
RTVSPropertyOp17
 70
     1
102
RTVSPropertyOp18
 70
     1
102
RTVSPropertyOp19
 70
     1
102
RTVSPropertyOp20
 70
     1
102
RTVSPropertyOp21
 70
     1
102
RTVSPropertyOp22
 70
     1
102
RTVSPropertyOp23
 70
     1
102
RTVSPropertyOp24
 70
     1
102
RTVSPropertyOp25
 70
     1
102
RTVSPropertyOp26
 70
     1
102
RTVSPropertyOp27
 70
     1
102
RTVSPropertyOp28
 70
     1
102
RTVSPropertyOp29
 70
     1
102
RTVSPropertyOp30
 70
     1
102
RTVSPropertyOp31
 70
     1
102
RTVSPropertyOp32
 70
     1
102
RTVSPropertyOp33
 70
     1
102
RTVSPropertyOp34
 70
     1
102
RTVSPropertyOp35
 70
     1
102
RTVSPropertyOp36
 70
     1
102
RTVSPropertyOp37
 70
     1
102
RTVSPropertyOp38
 70
     1
102
RTVSPropertyOp39
 70
     1
102
RTVSPropertyOp40
 70
     1
102
RTVSPropertyOp41
 70
     1
102
RTVSPropertyOp42
 70
     1
102
RTVSPropertyOp43
 70
     1
102
RTVSPropertyOp44
 70
     1
102
RTVSPropertyOp45
 70
     1
102
RTVSPropertyOp46
 70
     1
102
RTVSPropertyOp47
 70
     1
102
RTVSPropertyOp48
 70
     1
102
RTVSPropertyOp49
 70
     1
102
RTVSPropertyOp50
 70
     1
102
RTVSPropertyOp51
 70
     0
102
RTVSPropertyOp52
 70
     0
102
RTVSPropertyOp53
 70
     1
102
RTVSPropertyOp54
 70
     1
102
RTVSPropertyOp55
 70
     1
102
RTVSPropertyOp56
 70
     1
102
RTVSPropertyOp57
 70
     1
102
RTVSPropertyOp58
 70
     1
102
RTVSPropertyOp59
 70
     1
102
RTVSPropertyOp60
 70
     1
102
RTVSPropertyOp61
 70
     1
102
RTVSPropertyOp62
 70
     1
  0
XRECORD
  5
33C
102
{ACAD_REACTORS
330
33B
102
}
330
33B
100
AcDbXrecord
280
     1
102
RTVSPost2010Prop28
280
     0
102
RTVSPost2010PropOp28
 70
     1
102
RTVSPost2010Prop29
280
     1
102
RTVSPost2010PropOp29
 70
     1
102
RTVSPost2010Prop30
280
     1
102
RTVSPost2010PropOp30
 70
     1
102
RTVSPost2010Prop31
280
     0
102
RTVSPost2010PropOp31
 70
     1
102
RTVSPost2010Prop32
280
     0
102
RTVSPost2010PropOp32
 70
     1
102
RTVSPost2010Prop33
280
     0
102
RTVSPost2010PropOp33
 70
     1
102
RTVSPost2010Prop34
280
     0
102
RTVSPost2010PropOp34
 70
     1
102
RTVSPost2010Prop35
280
     0
102
RTVSPost2010PropOp35
 70
     1
102
RTVSPost2010Prop36
280
     0
102
RTVSPost2010PropOp36
 70
     1
102
RTVSPost2010Prop37
 90
       50
102
RTVSPost2010PropOp37
 70
     1
102
RTVSPost2010Prop38
140
0.0
102
RTVSPost2010PropOp38
 70
     1
102
RTVSPost2010Prop39
140
1.0
102
RTVSPost2010PropOp39
 70
     1
102
RTVSPost2010Prop40
 90
        0
102
RTVSPost2010PropOp40
 70
     1
102
RTVSPost2010Prop41ColorIndex
 90
       18
102
RTVSPost2010Prop41ColorRGB
 90
        0
102
RTVSPost2010PropOp41
 70
     1
102
RTVSPost2010Prop42
 90
       50
102
RTVSPost2010PropOp42
 70
     1
102
RTVSPost2010Prop43
 90
        3
102
RTVSPost2010PropOp43
 70
     1
102
RTVSPost2010Prop44ColorIndex
 90
        5
102
RTVSPost2010Prop44ColorRGB
 90
      255
102
RTVSPost2010PropOp44
 70
     1
102
RTVSPost2010Prop45
280
     0
102
RTVSPost2010PropOp45
 70
     1
102
RTVSPost2010Prop46
 90
       50
102
RTVSPost2010PropOp46
 70
     1
102
RTVSPost2010Prop47
 90
       50
102
RTVSPost2010PropOp47
 70
     1
102
RTVSPost2010Prop48
 90
       50
102
RTVSPost2010PropOp48
 70
     1
102
RTVSPost2010Prop49
280
     0
102
RTVSPost2010PropOp49
 70
     1
102
RTVSPost2010Prop50
 90
       50
102
RTVSPost2010PropOp50
 70
     1
102
RTVSPost2010Prop51ColorIndex
 90
      256
102
RTVSPost2010Prop51ColorRGB
 90
-16777216
102
RTVSPost2010PropOp51
 70
     0
102
RTVSPost2010Prop52
140
1.0
102
RTVSPost2010PropOp52
 70
     0
102
RTVSPost2010Prop53
 90
        2
102
RTVSPost2010PropOp53
 70
     1
102
RTVSPost2010Prop54
  1
strokes_ogs.tif
102
RTVSPost2010PropOp54
 70
     1
102
RTVSPost2010Prop55
280
     0
102
RTVSPost2010PropOp55
 70
     1
102
RTVSPost2010Prop56
140
1.0
102
RTVSPost2010PropOp56
 70
     1
102
RTVSPost2010Prop57
140
1.0
102
RTVSPost2010PropOp57
 70
     1
102
RTVSPropertyOp0
 70
     1
102
RTVSPropertyOp1
 70
     1
102
RTVSPropertyOp2
 70
     1
102
RTVSPropertyOp3
 70
     1
102
RTVSPropertyOp4
 70
     1
102
RTVSPropertyOp5
 70
     1
102
RTVSPropertyOp6
 70
     1
102
RTVSPropertyOp7
 70
     1
102
RTVSPropertyOp8
 70
     1
102
RTVSPropertyOp9
 70
     1
102
RTVSPropertyOp10
 70
     1
102
RTVSPropertyOp11
 70
     1
102
RTVSPropertyOp12
 70
     1
102
RTVSPropertyOp13
 70
     1
102
RTVSPropertyOp14
 70
     1
102
RTVSPropertyOp15
 70
     1
102
RTVSPropertyOp16
 70
     1
102
RTVSPropertyOp17
 70
     1
102
RTVSPropertyOp18
 70
     1
102
RTVSPropertyOp19
 70
     1
102
RTVSPropertyOp20
 70
     1
102
RTVSPropertyOp21
 70
     1
102
RTVSPropertyOp22
 70
     1
102
RTVSPropertyOp23
 70
     1
102
RTVSPropertyOp24
 70
     1
102
RTVSPropertyOp25
 70
     1
102
RTVSPropertyOp26
 70
     1
102
RTVSPropertyOp27
 70
     1
102
RTVSPropertyOp28
 70
     1
102
RTVSPropertyOp29
 70
     1
102
RTVSPropertyOp30
 70
     1
102
RTVSPropertyOp31
 70
     1
102
RTVSPropertyOp32
 70
     1
102
RTVSPropertyOp33
 70
     1
102
RTVSPropertyOp34
 70
     1
102
RTVSPropertyOp35
 70
     1
102
RTVSPropertyOp36
 70
     1
102
RTVSPropertyOp37
 70
     1
102
RTVSPropertyOp38
 70
     1
102
RTVSPropertyOp39
 70
     1
102
RTVSPropertyOp40
 70
     1
102
RTVSPropertyOp41
 70
     1
102
RTVSPropertyOp42
 70
     1
102
RTVSPropertyOp43
 70
     1
102
RTVSPropertyOp44
 70
     1
102
RTVSPropertyOp45
 70
     1
102
RTVSPropertyOp46
 70
     1
102
RTVSPropertyOp47
 70
     1
102
RTVSPropertyOp48
 70
     1
102
RTVSPropertyOp49
 70
     1
102
RTVSPropertyOp50
 70
     1
102
RTVSPropertyOp51
 70
     0
102
RTVSPropertyOp52
 70
     0
102
RTVSPropertyOp53
 70
     1
102
RTVSPropertyOp54
 70
     1
102
RTVSPropertyOp55
 70
     1
102
RTVSPropertyOp56
 70
     1
102
RTVSPropertyOp57
 70
     1
102
RTVSPropertyOp58
 70
     1
102
RTVSPropertyOp59
 70
     1
102
RTVSPropertyOp60
 70
     1
102
RTVSPropertyOp61
 70
     1
102
RTVSPropertyOp62
 70
     1
  0
XRECORD
  5
344
102
{ACAD_REACTORS
330
343
102
}
330
343
100
AcDbXrecord
280
     1
102
RTVSPost2010Prop28
280
     0
102
RTVSPost2010PropOp28
 70
     1
102
RTVSPost2010Prop29
280
     1
102
RTVSPost2010PropOp29
 70
     1
102
RTVSPost2010Prop30
280
     1
102
RTVSPost2010PropOp30
 70
     1
102
RTVSPost2010Prop31
280
     0
102
RTVSPost2010PropOp31
 70
     1
102
RTVSPost2010Prop32
280
     0
102
RTVSPost2010PropOp32
 70
     1
102
RTVSPost2010Prop33
280
     0
102
RTVSPost2010PropOp33
 70
     1
102
RTVSPost2010Prop34
280
     0
102
RTVSPost2010PropOp34
 70
     1
102
RTVSPost2010Prop35
280
     0
102
RTVSPost2010PropOp35
 70
     1
102
RTVSPost2010Prop36
280
     0
102
RTVSPost2010PropOp36
 70
     1
102
RTVSPost2010Prop37
 90
       50
102
RTVSPost2010PropOp37
 70
     1
102
RTVSPost2010Prop38
140
0.0
102
RTVSPost2010PropOp38
 70
     1
102
RTVSPost2010Prop39
140
1.0
102
RTVSPost2010PropOp39
 70
     1
102
RTVSPost2010Prop40
 90
        0
102
RTVSPost2010PropOp40
 70
     1
102
RTVSPost2010Prop41ColorIndex
 90
       18
102
RTVSPost2010Prop41ColorRGB
 90
        0
102
RTVSPost2010PropOp41
 70
     1
102
RTVSPost2010Prop42
 90
       50
102
RTVSPost2010PropOp42
 70
     1
102
RTVSPost2010Prop43
 90
        3
102
RTVSPost2010PropOp43
 70
     1
102
RTVSPost2010Prop44ColorIndex
 90
        5
102
RTVSPost2010Prop44ColorRGB
 90
      255
102
RTVSPost2010PropOp44
 70
     1
102
RTVSPost2010Prop45
280
     0
102
RTVSPost2010PropOp45
 70
     1
102
RTVSPost2010Prop46
 90
       50
102
RTVSPost2010PropOp46
 70
     1
102
RTVSPost2010Prop47
 90
       50
102
RTVSPost2010PropOp47
 70
     1
102
RTVSPost2010Prop48
 90
       50
102
RTVSPost2010PropOp48
 70
     1
102
RTVSPost2010Prop49
280
     0
102
RTVSPost2010PropOp49
 70
     1
102
RTVSPost2010Prop50
 90
       50
102
RTVSPost2010PropOp50
 70
     1
102
RTVSPost2010Prop51ColorIndex
 90
      256
102
RTVSPost2010Prop51ColorRGB
 90
-16777216
102
RTVSPost2010PropOp51
 70
     0
102
RTVSPost2010Prop52
140
1.0
102
RTVSPost2010PropOp52
 70
     0
102
RTVSPost2010Prop53
 90
        2
102
RTVSPost2010PropOp53
 70
     1
102
RTVSPost2010Prop54
  1
strokes_ogs.tif
102
RTVSPost2010PropOp54
 70
     1
102
RTVSPost2010Prop55
280
     0
102
RTVSPost2010PropOp55
 70
     1
102
RTVSPost2010Prop56
140
1.0
102
RTVSPost2010PropOp56
 70
     1
102
RTVSPost2010Prop57
140
1.0
102
RTVSPost2010PropOp57
 70
     1
102
RTVSPropertyOp0
 70
     1
102
RTVSPropertyOp1
 70
     1
102
RTVSPropertyOp2
 70
     1
102
RTVSPropertyOp3
 70
     1
102
RTVSPropertyOp4
 70
     1
102
RTVSPropertyOp5
 70
     1
102
RTVSPropertyOp6
 70
     1
102
RTVSPropertyOp7
 70
     1
102
RTVSPropertyOp8
 70
     1
102
RTVSPropertyOp9
 70
     1
102
RTVSPropertyOp10
 70
     1
102
RTVSPropertyOp11
 70
     1
102
RTVSPropertyOp12
 70
     1
102
RTVSPropertyOp13
 70
     1
102
RTVSPropertyOp14
 70
     1
102
RTVSPropertyOp15
 70
     1
102
RTVSPropertyOp16
 70
     1
102
RTVSPropertyOp17
 70
     1
102
RTVSPropertyOp18
 70
     1
102
RTVSPropertyOp19
 70
     1
102
RTVSPropertyOp20
 70
     1
102
RTVSPropertyOp21
 70
     1
102
RTVSPropertyOp22
 70
     1
102
RTVSPropertyOp23
 70
     1
102
RTVSPropertyOp24
 70
     1
102
RTVSPropertyOp25
 70
     1
102
RTVSPropertyOp26
 70
     1
102
RTVSPropertyOp27
 70
     1
102
RTVSPropertyOp28
 70
     1
102
RTVSPropertyOp29
 70
     1
102
RTVSPropertyOp30
 70
     1
102
RTVSPropertyOp31
 70
     1
102
RTVSPropertyOp32
 70
     1
102
RTVSPropertyOp33
 70
     1
102
RTVSPropertyOp34
 70
     1
102
RTVSPropertyOp35
 70
     1
102
RTVSPropertyOp36
 70
     1
102
RTVSPropertyOp37
 70
     1
102
RTVSPropertyOp38
 70
     1
102
RTVSPropertyOp39
 70
     1
102
RTVSPropertyOp40
 70
     1
102
RTVSPropertyOp41
 70
     1
102
RTVSPropertyOp42
 70
     1
102
RTVSPropertyOp43
 70
     1
102
RTVSPropertyOp44
 70
     1
102
RTVSPropertyOp45
 70
     1
102
RTVSPropertyOp46
 70
     1
102
RTVSPropertyOp47
 70
     1
102
RTVSPropertyOp48
 70
     1
102
RTVSPropertyOp49
 70
     1
102
RTVSPropertyOp50
 70
     1
102
RTVSPropertyOp51
 70
     0
102
RTVSPropertyOp52
 70
     0
102
RTVSPropertyOp53
 70
     1
102
RTVSPropertyOp54
 70
     1
102
RTVSPropertyOp55
 70
     1
102
RTVSPropertyOp56
 70
     1
102
RTVSPropertyOp57
 70
     1
102
RTVSPropertyOp58
 70
     1
102
RTVSPropertyOp59
 70
     1
102
RTVSPropertyOp60
 70
     1
102
RTVSPropertyOp61
 70
     1
102
RTVSPropertyOp62
 70
     1
  0
XRECORD
  5
336
102
{ACAD_REACTORS
330
335
102
}
330
335
100
AcDbXrecord
280
     1
102
RTVSPost2010Prop28
280
     0
102
RTVSPost2010PropOp28
 70
     1
102
RTVSPost2010Prop29
280
     1
102
RTVSPost2010PropOp29
 70
     1
102
RTVSPost2010Prop30
280
     1
102
RTVSPost2010PropOp30
 70
     1
102
RTVSPost2010Prop31
280
     0
102
RTVSPost2010PropOp31
 70
     1
102
RTVSPost2010Prop32
280
     0
102
RTVSPost2010PropOp32
 70
     1
102
RTVSPost2010Prop33
280
     0
102
RTVSPost2010PropOp33
 70
     1
102
RTVSPost2010Prop34
280
     0
102
RTVSPost2010PropOp34
 70
     1
102
RTVSPost2010Prop35
280
     0
102
RTVSPost2010PropOp35
 70
     1
102
RTVSPost2010Prop36
280
     0
102
RTVSPost2010PropOp36
 70
     1
102
RTVSPost2010Prop37
 90
       50
102
RTVSPost2010PropOp37
 70
     1
102
RTVSPost2010Prop38
140
0.0
102
RTVSPost2010PropOp38
 70
     1
102
RTVSPost2010Prop39
140
1.0
102
RTVSPost2010PropOp39
 70
     1
102
RTVSPost2010Prop40
 90
        0
102
RTVSPost2010PropOp40
 70
     1
102
RTVSPost2010Prop41ColorIndex
 90
       18
102
RTVSPost2010Prop41ColorRGB
 90
        0
102
RTVSPost2010PropOp41
 70
     1
102
RTVSPost2010Prop42
 90
       50
102
RTVSPost2010PropOp42
 70
     1
102
RTVSPost2010Prop43
 90
        3
102
RTVSPost2010PropOp43
 70
     1
102
RTVSPost2010Prop44ColorIndex
 90
        5
102
RTVSPost2010Prop44ColorRGB
 90
      255
102
RTVSPost2010PropOp44
 70
     1
102
RTVSPost2010Prop45
280
     0
102
RTVSPost2010PropOp45
 70
     1
102
RTVSPost2010Prop46
 90
       50
102
RTVSPost2010PropOp46
 70
     1
102
RTVSPost2010Prop47
 90
       50
102
RTVSPost2010PropOp47
 70
     1
102
RTVSPost2010Prop48
 90
       50
102
RTVSPost2010PropOp48
 70
     1
102
RTVSPost2010Prop49
280
     0
102
RTVSPost2010PropOp49
 70
     1
102
RTVSPost2010Prop50
 90
       50
102
RTVSPost2010PropOp50
 70
     1
102
RTVSPost2010Prop51ColorIndex
 90
      256
102
RTVSPost2010Prop51ColorRGB
 90
-16777216
102
RTVSPost2010PropOp51
 70
     0
102
RTVSPost2010Prop52
140
1.0
102
RTVSPost2010PropOp52
 70
     0
102
RTVSPost2010Prop53
 90
        2
102
RTVSPost2010PropOp53
 70
     1
102
RTVSPost2010Prop54
  1
strokes_ogs.tif
102
RTVSPost2010PropOp54
 70
     1
102
RTVSPost2010Prop55
280
     0
102
RTVSPost2010PropOp55
 70
     1
102
RTVSPost2010Prop56
140
1.0
102
RTVSPost2010PropOp56
 70
     1
102
RTVSPost2010Prop57
140
1.0
102
RTVSPost2010PropOp57
 70
     1
102
RTVSPropertyOp0
 70
     1
102
RTVSPropertyOp1
 70
     1
102
RTVSPropertyOp2
 70
     1
102
RTVSPropertyOp3
 70
     1
102
RTVSPropertyOp4
 70
     1
102
RTVSPropertyOp5
 70
     1
102
RTVSPropertyOp6
 70
     1
102
RTVSPropertyOp7
 70
     1
102
RTVSPropertyOp8
 70
     1
102
RTVSPropertyOp9
 70
     1
102
RTVSPropertyOp10
 70
     1
102
RTVSPropertyOp11
 70
     1
102
RTVSPropertyOp12
 70
     1
102
RTVSPropertyOp13
 70
     1
102
RTVSPropertyOp14
 70
     1
102
RTVSPropertyOp15
 70
     1
102
RTVSPropertyOp16
 70
     1
102
RTVSPropertyOp17
 70
     1
102
RTVSPropertyOp18
 70
     1
102
RTVSPropertyOp19
 70
     1
102
RTVSPropertyOp20
 70
     1
102
RTVSPropertyOp21
 70
     1
102
RTVSPropertyOp22
 70
     1
102
RTVSPropertyOp23
 70
     1
102
RTVSPropertyOp24
 70
     1
102
RTVSPropertyOp25
 70
     1
102
RTVSPropertyOp26
 70
     1
102
RTVSPropertyOp27
 70
     1
102
RTVSPropertyOp28
 70
     1
102
RTVSPropertyOp29
 70
     1
102
RTVSPropertyOp30
 70
     1
102
RTVSPropertyOp31
 70
     1
102
RTVSPropertyOp32
 70
     1
102
RTVSPropertyOp33
 70
     1
102
RTVSPropertyOp34
 70
     1
102
RTVSPropertyOp35
 70
     1
102
RTVSPropertyOp36
 70
     1
102
RTVSPropertyOp37
 70
     1
102
RTVSPropertyOp38
 70
     1
102
RTVSPropertyOp39
 70
     1
102
RTVSPropertyOp40
 70
     1
102
RTVSPropertyOp41
 70
     1
102
RTVSPropertyOp42
 70
     1
102
RTVSPropertyOp43
 70
     1
102
RTVSPropertyOp44
 70
     1
102
RTVSPropertyOp45
 70
     1
102
RTVSPropertyOp46
 70
     1
102
RTVSPropertyOp47
 70
     1
102
RTVSPropertyOp48
 70
     1
102
RTVSPropertyOp49
 70
     1
102
RTVSPropertyOp50
 70
     1
102
RTVSPropertyOp51
 70
     0
102
RTVSPropertyOp52
 70
     0
102
RTVSPropertyOp53
 70
     1
102
RTVSPropertyOp54
 70
     1
102
RTVSPropertyOp55
 70
     1
102
RTVSPropertyOp56
 70
     1
102
RTVSPropertyOp57
 70
     1
102
RTVSPropertyOp58
 70
     1
102
RTVSPropertyOp59
 70
     1
102
RTVSPropertyOp60
 70
     1
102
RTVSPropertyOp61
 70
     1
102
RTVSPropertyOp62
 70
     1
  0
XRECORD
  5
33A
102
{ACAD_REACTORS
330
339
102
}
330
339
100
AcDbXrecord
280
     1
102
RTVSPost2010Prop28
280
     0
102
RTVSPost2010PropOp28
 70
     1
102
RTVSPost2010Prop29
280
     1
102
RTVSPost2010PropOp29
 70
     1
102
RTVSPost2010Prop30
280
     1
102
RTVSPost2010PropOp30
 70
     1
102
RTVSPost2010Prop31
280
     0
102
RTVSPost2010PropOp31
 70
     1
102
RTVSPost2010Prop32
280
     0
102
RTVSPost2010PropOp32
 70
     1
102
RTVSPost2010Prop33
280
     0
102
RTVSPost2010PropOp33
 70
     1
102
RTVSPost2010Prop34
280
     0
102
RTVSPost2010PropOp34
 70
     1
102
RTVSPost2010Prop35
280
     0
102
RTVSPost2010PropOp35
 70
     1
102
RTVSPost2010Prop36
280
     0
102
RTVSPost2010PropOp36
 70
     1
102
RTVSPost2010Prop37
 90
       50
102
RTVSPost2010PropOp37
 70
     1
102
RTVSPost2010Prop38
140
0.0
102
RTVSPost2010PropOp38
 70
     1
102
RTVSPost2010Prop39
140
1.0
102
RTVSPost2010PropOp39
 70
     1
102
RTVSPost2010Prop40
 90
        0
102
RTVSPost2010PropOp40
 70
     1
102
RTVSPost2010Prop41ColorIndex
 90
       18
102
RTVSPost2010Prop41ColorRGB
 90
        0
102
RTVSPost2010PropOp41
 70
     1
102
RTVSPost2010Prop42
 90
       50
102
RTVSPost2010PropOp42
 70
     1
102
RTVSPost2010Prop43
 90
        3
102
RTVSPost2010PropOp43
 70
     1
102
RTVSPost2010Prop44ColorIndex
 90
        5
102
RTVSPost2010Prop44ColorRGB
 90
      255
102
RTVSPost2010PropOp44
 70
     1
102
RTVSPost2010Prop45
280
     0
102
RTVSPost2010PropOp45
 70
     1
102
RTVSPost2010Prop46
 90
       50
102
RTVSPost2010PropOp46
 70
     1
102
RTVSPost2010Prop47
 90
       50
102
RTVSPost2010PropOp47
 70
     1
102
RTVSPost2010Prop48
 90
       50
102
RTVSPost2010PropOp48
 70
     1
102
RTVSPost2010Prop49
280
     0
102
RTVSPost2010PropOp49
 70
     1
102
RTVSPost2010Prop50
 90
       50
102
RTVSPost2010PropOp50
 70
     1
102
RTVSPost2010Prop51ColorIndex
 90
      256
102
RTVSPost2010Prop51ColorRGB
 90
-16777216
102
RTVSPost2010PropOp51
 70
     0
102
RTVSPost2010Prop52
140
1.0
102
RTVSPost2010PropOp52
 70
     0
102
RTVSPost2010Prop53
 90
        2
102
RTVSPost2010PropOp53
 70
     1
102
RTVSPost2010Prop54
  1
strokes_ogs.tif
102
RTVSPost2010PropOp54
 70
     1
102
RTVSPost2010Prop55
280
     0
102
RTVSPost2010PropOp55
 70
     1
102
RTVSPost2010Prop56
140
1.0
102
RTVSPost2010PropOp56
 70
     1
102
RTVSPost2010Prop57
140
1.0
102
RTVSPost2010PropOp57
 70
     1
102
RTVSPropertyOp0
 70
     1
102
RTVSPropertyOp1
 70
     1
102
RTVSPropertyOp2
 70
     1
102
RTVSPropertyOp3
 70
     1
102
RTVSPropertyOp4
 70
     1
102
RTVSPropertyOp5
 70
     1
102
RTVSPropertyOp6
 70
     1
102
RTVSPropertyOp7
 70
     1
102
RTVSPropertyOp8
 70
     1
102
RTVSPropertyOp9
 70
     1
102
RTVSPropertyOp10
 70
     1
102
RTVSPropertyOp11
 70
     1
102
RTVSPropertyOp12
 70
     1
102
RTVSPropertyOp13
 70
     1
102
RTVSPropertyOp14
 70
     1
102
RTVSPropertyOp15
 70
     1
102
RTVSPropertyOp16
 70
     1
102
RTVSPropertyOp17
 70
     1
102
RTVSPropertyOp18
 70
     1
102
RTVSPropertyOp19
 70
     1
102
RTVSPropertyOp20
 70
     1
102
RTVSPropertyOp21
 70
     1
102
RTVSPropertyOp22
 70
     1
102
RTVSPropertyOp23
 70
     1
102
RTVSPropertyOp24
 70
     1
102
RTVSPropertyOp25
 70
     1
102
RTVSPropertyOp26
 70
     1
102
RTVSPropertyOp27
 70
     1
102
RTVSPropertyOp28
 70
     1
102
RTVSPropertyOp29
 70
     1
102
RTVSPropertyOp30
 70
     1
102
RTVSPropertyOp31
 70
     1
102
RTVSPropertyOp32
 70
     1
102
RTVSPropertyOp33
 70
     1
102
RTVSPropertyOp34
 70
     1
102
RTVSPropertyOp35
 70
     1
102
RTVSPropertyOp36
 70
     1
102
RTVSPropertyOp37
 70
     1
102
RTVSPropertyOp38
 70
     1
102
RTVSPropertyOp39
 70
     1
102
RTVSPropertyOp40
 70
     1
102
RTVSPropertyOp41
 70
     1
102
RTVSPropertyOp42
 70
     1
102
RTVSPropertyOp43
 70
     1
102
RTVSPropertyOp44
 70
     1
102
RTVSPropertyOp45
 70
     1
102
RTVSPropertyOp46
 70
     1
102
RTVSPropertyOp47
 70
     1
102
RTVSPropertyOp48
 70
     1
102
RTVSPropertyOp49
 70
     1
102
RTVSPropertyOp50
 70
     1
102
RTVSPropertyOp51
 70
     0
102
RTVSPropertyOp52
 70
     0
102
RTVSPropertyOp53
 70
     1
102
RTVSPropertyOp54
 70
     1
102
RTVSPropertyOp55
 70
     1
102
RTVSPropertyOp56
 70
     1
102
RTVSPropertyOp57
 70
     1
102
RTVSPropertyOp58
 70
     1
102
RTVSPropertyOp59
 70
     1
102
RTVSPropertyOp60
 70
     1
102
RTVSPropertyOp61
 70
     1
102
RTVSPropertyOp62
 70
     1
  0
XRECORD
  5
34A
102
{ACAD_REACTORS
330
349
102
}
330
349
100
AcDbXrecord
280
     1
102
RTVSPost2010Prop28
280
     0
102
RTVSPost2010PropOp28
 70
     1
102
RTVSPost2010Prop29
280
     1
102
RTVSPost2010PropOp29
 70
     1
102
RTVSPost2010Prop30
280
     1
102
RTVSPost2010PropOp30
 70
     1
102
RTVSPost2010Prop31
280
     0
102
RTVSPost2010PropOp31
 70
     1
102
RTVSPost2010Prop32
280
     0
102
RTVSPost2010PropOp32
 70
     1
102
RTVSPost2010Prop33
280
     0
102
RTVSPost2010PropOp33
 70
     1
102
RTVSPost2010Prop34
280
     0
102
RTVSPost2010PropOp34
 70
     1
102
RTVSPost2010Prop35
280
     0
102
RTVSPost2010PropOp35
 70
     1
102
RTVSPost2010Prop36
280
     0
102
RTVSPost2010PropOp36
 70
     1
102
RTVSPost2010Prop37
 90
       50
102
RTVSPost2010PropOp37
 70
     1
102
RTVSPost2010Prop38
140
0.0
102
RTVSPost2010PropOp38
 70
     1
102
RTVSPost2010Prop39
140
1.0
102
RTVSPost2010PropOp39
 70
     1
102
RTVSPost2010Prop40
 90
        0
102
RTVSPost2010PropOp40
 70
     1
102
RTVSPost2010Prop41ColorIndex
 90
       18
102
RTVSPost2010Prop41ColorRGB
 90
        0
102
RTVSPost2010PropOp41
 70
     1
102
RTVSPost2010Prop42
 90
       50
102
RTVSPost2010PropOp42
 70
     1
102
RTVSPost2010Prop43
 90
        3
102
RTVSPost2010PropOp43
 70
     1
102
RTVSPost2010Prop44ColorIndex
 90
        5
102
RTVSPost2010Prop44ColorRGB
 90
      255
102
RTVSPost2010PropOp44
 70
     1
102
RTVSPost2010Prop45
280
     0
102
RTVSPost2010PropOp45
 70
     1
102
RTVSPost2010Prop46
 90
       50
102
RTVSPost2010PropOp46
 70
     1
102
RTVSPost2010Prop47
 90
       50
102
RTVSPost2010PropOp47
 70
     1
102
RTVSPost2010Prop48
 90
       50
102
RTVSPost2010PropOp48
 70
     1
102
RTVSPost2010Prop49
280
     0
102
RTVSPost2010PropOp49
 70
     1
102
RTVSPost2010Prop50
 90
       50
102
RTVSPost2010PropOp50
 70
     1
102
RTVSPost2010Prop51ColorIndex
 90
      256
102
RTVSPost2010Prop51ColorRGB
 90
-16777216
102
RTVSPost2010PropOp51
 70
     0
102
RTVSPost2010Prop52
140
1.0
102
RTVSPost2010PropOp52
 70
     0
102
RTVSPost2010Prop53
 90
        2
102
RTVSPost2010PropOp53
 70
     1
102
RTVSPost2010Prop54
  1
strokes_ogs.tif
102
RTVSPost2010PropOp54
 70
     1
102
RTVSPost2010Prop55
280
     0
102
RTVSPost2010PropOp55
 70
     1
102
RTVSPost2010Prop56
140
1.0
102
RTVSPost2010PropOp56
 70
     1
102
RTVSPost2010Prop57
140
1.0
102
RTVSPost2010PropOp57
 70
     1
102
RTVSPropertyOp0
 70
     0
102
RTVSPropertyOp1
 70
     0
102
RTVSPropertyOp2
 70
     0
102
RTVSPropertyOp3
 70
     0
102
RTVSPropertyOp4
 70
     0
102
RTVSPropertyOp5
 70
     0
102
RTVSPropertyOp6
 70
     0
102
RTVSPropertyOp7
 70
     0
102
RTVSPropertyOp8
 70
     0
102
RTVSPropertyOp9
 70
     0
102
RTVSPropertyOp10
 70
     0
102
RTVSPropertyOp11
 70
     0
102
RTVSPropertyOp12
 70
     0
102
RTVSPropertyOp13
 70
     0
102
RTVSPropertyOp14
 70
     2
102
RTVSPropertyOp15
 70
     0
102
RTVSPropertyOp16
 70
     0
102
RTVSPropertyOp17
 70
     0
102
RTVSPropertyOp18
 70
     0
102
RTVSPropertyOp19
 70
     0
102
RTVSPropertyOp20
 70
     0
102
RTVSPropertyOp21
 70
     0
102
RTVSPropertyOp22
 70
     0
102
RTVSPropertyOp23
 70
     0
102
RTVSPropertyOp24
 70
     0
102
RTVSPropertyOp25
 70
     0
102
RTVSPropertyOp26
 70
     0
102
RTVSPropertyOp27
 70
     0
102
RTVSPropertyOp28
 70
     1
102
RTVSPropertyOp29
 70
     1
102
RTVSPropertyOp30
 70
     1
102
RTVSPropertyOp31
 70
     1
102
RTVSPropertyOp32
 70
     1
102
RTVSPropertyOp33
 70
     1
102
RTVSPropertyOp34
 70
     1
102
RTVSPropertyOp35
 70
     1
102
RTVSPropertyOp36
 70
     1
102
RTVSPropertyOp37
 70
     1
102
RTVSPropertyOp38
 70
     1
102
RTVSPropertyOp39
 70
     1
102
RTVSPropertyOp40
 70
     1
102
RTVSPropertyOp41
 70
     1
102
RTVSPropertyOp42
 70
     1
102
RTVSPropertyOp43
 70
     1
102
RTVSPropertyOp44
 70
     1
102
RTVSPropertyOp45
 70
     1
102
RTVSPropertyOp46
 70
     1
102
RTVSPropertyOp47
 70
     1
102
RTVSPropertyOp48
 70
     1
102
RTVSPropertyOp49
 70
     1
102
RTVSPropertyOp50
 70
     1
102
RTVSPropertyOp51
 70
     0
102
RTVSPropertyOp52
 70
     0
102
RTVSPropertyOp53
 70
     1
102
RTVSPropertyOp54
 70
     1
102
RTVSPropertyOp55
 70
     1
102
RTVSPropertyOp56
 70
     1
102
RTVSPropertyOp57
 70
     1
102
RTVSPropertyOp58
 70
     1
102
RTVSPropertyOp59
 70
     1
102
RTVSPropertyOp60
 70
     1
102
RTVSPropertyOp61
 70
     1
102
RTVSPropertyOp62
 70
     1
  0
XRECORD
  5
342
102
{ACAD_REACTORS
330
341
102
}
330
341
100
AcDbXrecord
280
     1
102
RTVSPost2010Prop28
280
     0
102
RTVSPost2010PropOp28
 70
     1
102
RTVSPost2010Prop29
280
     1
102
RTVSPost2010PropOp29
 70
     1
102
RTVSPost2010Prop30
280
     1
102
RTVSPost2010PropOp30
 70
     1
102
RTVSPost2010Prop31
280
     0
102
RTVSPost2010PropOp31
 70
     1
102
RTVSPost2010Prop32
280
     0
102
RTVSPost2010PropOp32
 70
     1
102
RTVSPost2010Prop33
280
     0
102
RTVSPost2010PropOp33
 70
     1
102
RTVSPost2010Prop34
280
     0
102
RTVSPost2010PropOp34
 70
     1
102
RTVSPost2010Prop35
280
     0
102
RTVSPost2010PropOp35
 70
     1
102
RTVSPost2010Prop36
280
     0
102
RTVSPost2010PropOp36
 70
     1
102
RTVSPost2010Prop37
 90
       50
102
RTVSPost2010PropOp37
 70
     1
102
RTVSPost2010Prop38
140
0.0
102
RTVSPost2010PropOp38
 70
     1
102
RTVSPost2010Prop39
140
1.0
102
RTVSPost2010PropOp39
 70
     1
102
RTVSPost2010Prop40
 90
        0
102
RTVSPost2010PropOp40
 70
     1
102
RTVSPost2010Prop41ColorIndex
 90
       18
102
RTVSPost2010Prop41ColorRGB
 90
        0
102
RTVSPost2010PropOp41
 70
     1
102
RTVSPost2010Prop42
 90
       50
102
RTVSPost2010PropOp42
 70
     1
102
RTVSPost2010Prop43
 90
        3
102
RTVSPost2010PropOp43
 70
     1
102
RTVSPost2010Prop44ColorIndex
 90
        5
102
RTVSPost2010Prop44ColorRGB
 90
      255
102
RTVSPost2010PropOp44
 70
     1
102
RTVSPost2010Prop45
280
     0
102
RTVSPost2010PropOp45
 70
     1
102
RTVSPost2010Prop46
 90
       50
102
RTVSPost2010PropOp46
 70
     1
102
RTVSPost2010Prop47
 90
       50
102
RTVSPost2010PropOp47
 70
     1
102
RTVSPost2010Prop48
 90
       50
102
RTVSPost2010PropOp48
 70
     1
102
RTVSPost2010Prop49
280
     0
102
RTVSPost2010PropOp49
 70
     1
102
RTVSPost2010Prop50
 90
       50
102
RTVSPost2010PropOp50
 70
     1
102
RTVSPost2010Prop51ColorIndex
 90
      256
102
RTVSPost2010Prop51ColorRGB
 90
-16777216
102
RTVSPost2010PropOp51
 70
     0
102
RTVSPost2010Prop52
140
1.0
102
RTVSPost2010PropOp52
 70
     0
102
RTVSPost2010Prop53
 90
        2
102
RTVSPost2010PropOp53
 70
     1
102
RTVSPost2010Prop54
  1
strokes_ogs.tif
102
RTVSPost2010PropOp54
 70
     1
102
RTVSPost2010Prop55
280
     0
102
RTVSPost2010PropOp55
 70
     1
102
RTVSPost2010Prop56
140
1.0
102
RTVSPost2010PropOp56
 70
     1
102
RTVSPost2010Prop57
140
1.0
102
RTVSPost2010PropOp57
 70
     1
102
RTVSPropertyOp0
 70
     1
102
RTVSPropertyOp1
 70
     1
102
RTVSPropertyOp2
 70
     1
102
RTVSPropertyOp3
 70
     1
102
RTVSPropertyOp4
 70
     1
102
RTVSPropertyOp5
 70
     1
102
RTVSPropertyOp6
 70
     1
102
RTVSPropertyOp7
 70
     1
102
RTVSPropertyOp8
 70
     1
102
RTVSPropertyOp9
 70
     1
102
RTVSPropertyOp10
 70
     1
102
RTVSPropertyOp11
 70
     1
102
RTVSPropertyOp12
 70
     1
102
RTVSPropertyOp13
 70
     1
102
RTVSPropertyOp14
 70
     1
102
RTVSPropertyOp15
 70
     1
102
RTVSPropertyOp16
 70
     1
102
RTVSPropertyOp17
 70
     1
102
RTVSPropertyOp18
 70
     1
102
RTVSPropertyOp19
 70
     1
102
RTVSPropertyOp20
 70
     1
102
RTVSPropertyOp21
 70
     1
102
RTVSPropertyOp22
 70
     1
102
RTVSPropertyOp23
 70
     1
102
RTVSPropertyOp24
 70
     1
102
RTVSPropertyOp25
 70
     1
102
RTVSPropertyOp26
 70
     1
102
RTVSPropertyOp27
 70
     1
102
RTVSPropertyOp28
 70
     1
102
RTVSPropertyOp29
 70
     1
102
RTVSPropertyOp30
 70
     1
102
RTVSPropertyOp31
 70
     1
102
RTVSPropertyOp32
 70
     1
102
RTVSPropertyOp33
 70
     1
102
RTVSPropertyOp34
 70
     1
102
RTVSPropertyOp35
 70
     1
102
RTVSPropertyOp36
 70
     1
102
RTVSPropertyOp37
 70
     1
102
RTVSPropertyOp38
 70
     1
102
RTVSPropertyOp39
 70
     1
102
RTVSPropertyOp40
 70
     1
102
RTVSPropertyOp41
 70
     1
102
RTVSPropertyOp42
 70
     1
102
RTVSPropertyOp43
 70
     1
102
RTVSPropertyOp44
 70
     1
102
RTVSPropertyOp45
 70
     1
102
RTVSPropertyOp46
 70
     1
102
RTVSPropertyOp47
 70
     1
102
RTVSPropertyOp48
 70
     1
102
RTVSPropertyOp49
 70
     1
102
RTVSPropertyOp50
 70
     1
102
RTVSPropertyOp51
 70
     0
102
RTVSPropertyOp52
 70
     0
102
RTVSPropertyOp53
 70
     1
102
RTVSPropertyOp54
 70
     1
102
RTVSPropertyOp55
 70
     1
102
RTVSPropertyOp56
 70
     1
102
RTVSPropertyOp57
 70
     1
102
RTVSPropertyOp58
 70
     1
102
RTVSPropertyOp59
 70
     1
102
RTVSPropertyOp60
 70
     1
102
RTVSPropertyOp61
 70
     1
102
RTVSPropertyOp62
 70
     1
  0
XRECORD
  5
326
102
{ACAD_REACTORS
330
325
102
}
330
325
100
AcDbXrecord
280
     1
102
RTVSPost2010Prop28
280
     0
102
RTVSPost2010PropOp28
 70
     1
102
RTVSPost2010Prop29
280
     1
102
RTVSPost2010PropOp29
 70
     1
102
RTVSPost2010Prop30
280
     1
102
RTVSPost2010PropOp30
 70
     1
102
RTVSPost2010Prop31
280
     0
102
RTVSPost2010PropOp31
 70
     1
102
RTVSPost2010Prop32
280
     0
102
RTVSPost2010PropOp32
 70
     1
102
RTVSPost2010Prop33
280
     0
102
RTVSPost2010PropOp33
 70
     1
102
RTVSPost2010Prop34
280
     0
102
RTVSPost2010PropOp34
 70
     1
102
RTVSPost2010Prop35
280
     0
102
RTVSPost2010PropOp35
 70
     1
102
RTVSPost2010Prop36
280
     0
102
RTVSPost2010PropOp36
 70
     1
102
RTVSPost2010Prop37
 90
       50
102
RTVSPost2010PropOp37
 70
     1
102
RTVSPost2010Prop38
140
0.0
102
RTVSPost2010PropOp38
 70
     1
102
RTVSPost2010Prop39
140
1.0
102
RTVSPost2010PropOp39
 70
     1
102
RTVSPost2010Prop40
 90
        0
102
RTVSPost2010PropOp40
 70
     1
102
RTVSPost2010Prop41ColorIndex
 90
       18
102
RTVSPost2010Prop41ColorRGB
 90
        0
102
RTVSPost2010PropOp41
 70
     1
102
RTVSPost2010Prop42
 90
       50
102
RTVSPost2010PropOp42
 70
     1
102
RTVSPost2010Prop43
 90
        3
102
RTVSPost2010PropOp43
 70
     1
102
RTVSPost2010Prop44ColorIndex
 90
        5
102
RTVSPost2010Prop44ColorRGB
 90
      255
102
RTVSPost2010PropOp44
 70
     1
102
RTVSPost2010Prop45
280
     0
102
RTVSPost2010PropOp45
 70
     1
102
RTVSPost2010Prop46
 90
       50
102
RTVSPost2010PropOp46
 70
     1
102
RTVSPost2010Prop47
 90
       50
102
RTVSPost2010PropOp47
 70
     1
102
RTVSPost2010Prop48
 90
       50
102
RTVSPost2010PropOp48
 70
     1
102
RTVSPost2010Prop49
280
     0
102
RTVSPost2010PropOp49
 70
     1
102
RTVSPost2010Prop50
 90
       50
102
RTVSPost2010PropOp50
 70
     1
102
RTVSPost2010Prop51ColorIndex
 90
      256
102
RTVSPost2010Prop51ColorRGB
 90
-16777216
102
RTVSPost2010PropOp51
 70
     0
102
RTVSPost2010Prop52
140
1.0
102
RTVSPost2010PropOp52
 70
     0
102
RTVSPost2010Prop53
 90
        2
102
RTVSPost2010PropOp53
 70
     1
102
RTVSPost2010Prop54
  1
strokes_ogs.tif
102
RTVSPost2010PropOp54
 70
     1
102
RTVSPost2010Prop55
280
     0
102
RTVSPost2010PropOp55
 70
     1
102
RTVSPost2010Prop56
140
1.0
102
RTVSPost2010PropOp56
 70
     1
102
RTVSPost2010Prop57
140
1.0
102
RTVSPost2010PropOp57
 70
     1
102
RTVSPropertyOp0
 70
     1
102
RTVSPropertyOp1
 70
     1
102
RTVSPropertyOp2
 70
     1
102
RTVSPropertyOp3
 70
     1
102
RTVSPropertyOp4
 70
     1
102
RTVSPropertyOp5
 70
     1
102
RTVSPropertyOp6
 70
     1
102
RTVSPropertyOp7
 70
     1
102
RTVSPropertyOp8
 70
     1
102
RTVSPropertyOp9
 70
     1
102
RTVSPropertyOp10
 70
     1
102
RTVSPropertyOp11
 70
     1
102
RTVSPropertyOp12
 70
     1
102
RTVSPropertyOp13
 70
     1
102
RTVSPropertyOp14
 70
     1
102
RTVSPropertyOp15
 70
     1
102
RTVSPropertyOp16
 70
     1
102
RTVSPropertyOp17
 70
     1
102
RTVSPropertyOp18
 70
     1
102
RTVSPropertyOp19
 70
     1
102
RTVSPropertyOp20
 70
     1
102
RTVSPropertyOp21
 70
     1
102
RTVSPropertyOp22
 70
     1
102
RTVSPropertyOp23
 70
     1
102
RTVSPropertyOp24
 70
     1
102
RTVSPropertyOp25
 70
     1
102
RTVSPropertyOp26
 70
     1
102
RTVSPropertyOp27
 70
     1
102
RTVSPropertyOp28
 70
     1
102
RTVSPropertyOp29
 70
     1
102
RTVSPropertyOp30
 70
     1
102
RTVSPropertyOp31
 70
     1
102
RTVSPropertyOp32
 70
     1
102
RTVSPropertyOp33
 70
     1
102
RTVSPropertyOp34
 70
     1
102
RTVSPropertyOp35
 70
     1
102
RTVSPropertyOp36
 70
     1
102
RTVSPropertyOp37
 70
     1
102
RTVSPropertyOp38
 70
     1
102
RTVSPropertyOp39
 70
     1
102
RTVSPropertyOp40
 70
     1
102
RTVSPropertyOp41
 70
     1
102
RTVSPropertyOp42
 70
     1
102
RTVSPropertyOp43
 70
     1
102
RTVSPropertyOp44
 70
     1
102
RTVSPropertyOp45
 70
     1
102
RTVSPropertyOp46
 70
     1
102
RTVSPropertyOp47
 70
     1
102
RTVSPropertyOp48
 70
     1
102
RTVSPropertyOp49
 70
     1
102
RTVSPropertyOp50
 70
     1
102
RTVSPropertyOp51
 70
     0
102
RTVSPropertyOp52
 70
     0
102
RTVSPropertyOp53
 70
     1
102
RTVSPropertyOp54
 70
     1
102
RTVSPropertyOp55
 70
     1
102
RTVSPropertyOp56
 70
     1
102
RTVSPropertyOp57
 70
     1
102
RTVSPropertyOp58
 70
     1
102
RTVSPropertyOp59
 70
     1
102
RTVSPropertyOp60
 70
     1
102
RTVSPropertyOp61
 70
     1
102
RTVSPropertyOp62
 70
     1
  0
XRECORD
  5
328
102
{ACAD_REACTORS
330
327
102
}
330
327
100
AcDbXrecord
280
     1
102
RTVSPost2010Prop28
280
     0
102
RTVSPost2010PropOp28
 70
     1
102
RTVSPost2010Prop29
280
     1
102
RTVSPost2010PropOp29
 70
     1
102
RTVSPost2010Prop30
280
     1
102
RTVSPost2010PropOp30
 70
     1
102
RTVSPost2010Prop31
280
     0
102
RTVSPost2010PropOp31
 70
     1
102
RTVSPost2010Prop32
280
     0
102
RTVSPost2010PropOp32
 70
     1
102
RTVSPost2010Prop33
280
     0
102
RTVSPost2010PropOp33
 70
     1
102
RTVSPost2010Prop34
280
     0
102
RTVSPost2010PropOp34
 70
     1
102
RTVSPost2010Prop35
280
     0
102
RTVSPost2010PropOp35
 70
     1
102
RTVSPost2010Prop36
280
     0
102
RTVSPost2010PropOp36
 70
     1
102
RTVSPost2010Prop37
 90
       50
102
RTVSPost2010PropOp37
 70
     1
102
RTVSPost2010Prop38
140
0.0
102
RTVSPost2010PropOp38
 70
     1
102
RTVSPost2010Prop39
140
1.0
102
RTVSPost2010PropOp39
 70
     1
102
RTVSPost2010Prop40
 90
        0
102
RTVSPost2010PropOp40
 70
     1
102
RTVSPost2010Prop41ColorIndex
 90
       18
102
RTVSPost2010Prop41ColorRGB
 90
        0
102
RTVSPost2010PropOp41
 70
     1
102
RTVSPost2010Prop42
 90
       50
102
RTVSPost2010PropOp42
 70
     1
102
RTVSPost2010Prop43
 90
        3
102
RTVSPost2010PropOp43
 70
     1
102
RTVSPost2010Prop44ColorIndex
 90
        5
102
RTVSPost2010Prop44ColorRGB
 90
      255
102
RTVSPost2010PropOp44
 70
     1
102
RTVSPost2010Prop45
280
     0
102
RTVSPost2010PropOp45
 70
     1
102
RTVSPost2010Prop46
 90
       50
102
RTVSPost2010PropOp46
 70
     1
102
RTVSPost2010Prop47
 90
       50
102
RTVSPost2010PropOp47
 70
     1
102
RTVSPost2010Prop48
 90
       50
102
RTVSPost2010PropOp48
 70
     1
102
RTVSPost2010Prop49
280
     0
102
RTVSPost2010PropOp49
 70
     1
102
RTVSPost2010Prop50
 90
       50
102
RTVSPost2010PropOp50
 70
     1
102
RTVSPost2010Prop51ColorIndex
 90
      256
102
RTVSPost2010Prop51ColorRGB
 90
-16777216
102
RTVSPost2010PropOp51
 70
     0
102
RTVSPost2010Prop52
140
1.0
102
RTVSPost2010PropOp52
 70
     0
102
RTVSPost2010Prop53
 90
        2
102
RTVSPost2010PropOp53
 70
     1
102
RTVSPost2010Prop54
  1
strokes_ogs.tif
102
RTVSPost2010PropOp54
 70
     1
102
RTVSPost2010Prop55
280
     0
102
RTVSPost2010PropOp55
 70
     1
102
RTVSPost2010Prop56
140
1.0
102
RTVSPost2010PropOp56
 70
     1
102
RTVSPost2010Prop57
140
1.0
102
RTVSPost2010PropOp57
 70
     1
102
RTVSPropertyOp0
 70
     1
102
RTVSPropertyOp1
 70
     1
102
RTVSPropertyOp2
 70
     1
102
RTVSPropertyOp3
 70
     1
102
RTVSPropertyOp4
 70
     1
102
RTVSPropertyOp5
 70
     1
102
RTVSPropertyOp6
 70
     1
102
RTVSPropertyOp7
 70
     1
102
RTVSPropertyOp8
 70
     1
102
RTVSPropertyOp9
 70
     1
102
RTVSPropertyOp10
 70
     1
102
RTVSPropertyOp11
 70
     1
102
RTVSPropertyOp12
 70
     1
102
RTVSPropertyOp13
 70
     1
102
RTVSPropertyOp14
 70
     1
102
RTVSPropertyOp15
 70
     1
102
RTVSPropertyOp16
 70
     1
102
RTVSPropertyOp17
 70
     1
102
RTVSPropertyOp18
 70
     1
102
RTVSPropertyOp19
 70
     1
102
RTVSPropertyOp20
 70
     1
102
RTVSPropertyOp21
 70
     1
102
RTVSPropertyOp22
 70
     1
102
RTVSPropertyOp23
 70
     1
102
RTVSPropertyOp24
 70
     1
102
RTVSPropertyOp25
 70
     1
102
RTVSPropertyOp26
 70
     1
102
RTVSPropertyOp27
 70
     1
102
RTVSPropertyOp28
 70
     1
102
RTVSPropertyOp29
 70
     1
102
RTVSPropertyOp30
 70
     1
102
RTVSPropertyOp31
 70
     1
102
RTVSPropertyOp32
 70
     1
102
RTVSPropertyOp33
 70
     1
102
RTVSPropertyOp34
 70
     1
102
RTVSPropertyOp35
 70
     1
102
RTVSPropertyOp36
 70
     1
102
RTVSPropertyOp37
 70
     1
102
RTVSPropertyOp38
 70
     1
102
RTVSPropertyOp39
 70
     1
102
RTVSPropertyOp40
 70
     1
102
RTVSPropertyOp41
 70
     1
102
RTVSPropertyOp42
 70
     1
102
RTVSPropertyOp43
 70
     1
102
RTVSPropertyOp44
 70
     1
102
RTVSPropertyOp45
 70
     1
102
RTVSPropertyOp46
 70
     1
102
RTVSPropertyOp47
 70
     1
102
RTVSPropertyOp48
 70
     1
102
RTVSPropertyOp49
 70
     1
102
RTVSPropertyOp50
 70
     1
102
RTVSPropertyOp51
 70
     0
102
RTVSPropertyOp52
 70
     0
102
RTVSPropertyOp53
 70
     1
102
RTVSPropertyOp54
 70
     1
102
RTVSPropertyOp55
 70
     1
102
RTVSPropertyOp56
 70
     1
102
RTVSPropertyOp57
 70
     1
102
RTVSPropertyOp58
 70
     1
102
RTVSPropertyOp59
 70
     1
102
RTVSPropertyOp60
 70
     1
102
RTVSPropertyOp61
 70
     1
102
RTVSPropertyOp62
 70
     1
  0
XRECORD
  5
32A
102
{ACAD_REACTORS
330
329
102
}
330
329
100
AcDbXrecord
280
     1
102
RTVSPost2010Prop28
280
     0
102
RTVSPost2010PropOp28
 70
     1
102
RTVSPost2010Prop29
280
     1
102
RTVSPost2010PropOp29
 70
     1
102
RTVSPost2010Prop30
280
     1
102
RTVSPost2010PropOp30
 70
     1
102
RTVSPost2010Prop31
280
     0
102
RTVSPost2010PropOp31
 70
     1
102
RTVSPost2010Prop32
280
     0
102
RTVSPost2010PropOp32
 70
     1
102
RTVSPost2010Prop33
280
     0
102
RTVSPost2010PropOp33
 70
     1
102
RTVSPost2010Prop34
280
     0
102
RTVSPost2010PropOp34
 70
     1
102
RTVSPost2010Prop35
280
     0
102
RTVSPost2010PropOp35
 70
     1
102
RTVSPost2010Prop36
280
     0
102
RTVSPost2010PropOp36
 70
     1
102
RTVSPost2010Prop37
 90
       50
102
RTVSPost2010PropOp37
 70
     1
102
RTVSPost2010Prop38
140
0.0
102
RTVSPost2010PropOp38
 70
     1
102
RTVSPost2010Prop39
140
1.0
102
RTVSPost2010PropOp39
 70
     1
102
RTVSPost2010Prop40
 90
        0
102
RTVSPost2010PropOp40
 70
     1
102
RTVSPost2010Prop41ColorIndex
 90
       18
102
RTVSPost2010Prop41ColorRGB
 90
        0
102
RTVSPost2010PropOp41
 70
     1
102
RTVSPost2010Prop42
 90
       50
102
RTVSPost2010PropOp42
 70
     1
102
RTVSPost2010Prop43
 90
        3
102
RTVSPost2010PropOp43
 70
     1
102
RTVSPost2010Prop44ColorIndex
 90
        5
102
RTVSPost2010Prop44ColorRGB
 90
      255
102
RTVSPost2010PropOp44
 70
     1
102
RTVSPost2010Prop45
280
     0
102
RTVSPost2010PropOp45
 70
     1
102
RTVSPost2010Prop46
 90
       50
102
RTVSPost2010PropOp46
 70
     1
102
RTVSPost2010Prop47
 90
       50
102
RTVSPost2010PropOp47
 70
     1
102
RTVSPost2010Prop48
 90
       50
102
RTVSPost2010PropOp48
 70
     1
102
RTVSPost2010Prop49
280
     0
102
RTVSPost2010PropOp49
 70
     1
102
RTVSPost2010Prop50
 90
       50
102
RTVSPost2010PropOp50
 70
     1
102
RTVSPost2010Prop51ColorIndex
 90
      256
102
RTVSPost2010Prop51ColorRGB
 90
-16777216
102
RTVSPost2010PropOp51
 70
     0
102
RTVSPost2010Prop52
140
1.0
102
RTVSPost2010PropOp52
 70
     0
102
RTVSPost2010Prop53
 90
        2
102
RTVSPost2010PropOp53
 70
     1
102
RTVSPost2010Prop54
  1
strokes_ogs.tif
102
RTVSPost2010PropOp54
 70
     1
102
RTVSPost2010Prop55
280
     0
102
RTVSPost2010PropOp55
 70
     1
102
RTVSPost2010Prop56
140
1.0
102
RTVSPost2010PropOp56
 70
     1
102
RTVSPost2010Prop57
140
1.0
102
RTVSPost2010PropOp57
 70
     1
102
RTVSPropertyOp0
 70
     1
102
RTVSPropertyOp1
 70
     1
102
RTVSPropertyOp2
 70
     1
102
RTVSPropertyOp3
 70
     1
102
RTVSPropertyOp4
 70
     1
102
RTVSPropertyOp5
 70
     1
102
RTVSPropertyOp6
 70
     1
102
RTVSPropertyOp7
 70
     1
102
RTVSPropertyOp8
 70
     1
102
RTVSPropertyOp9
 70
     1
102
RTVSPropertyOp10
 70
     1
102
RTVSPropertyOp11
 70
     1
102
RTVSPropertyOp12
 70
     1
102
RTVSPropertyOp13
 70
     1
102
RTVSPropertyOp14
 70
     1
102
RTVSPropertyOp15
 70
     1
102
RTVSPropertyOp16
 70
     1
102
RTVSPropertyOp17
 70
     1
102
RTVSPropertyOp18
 70
     1
102
RTVSPropertyOp19
 70
     1
102
RTVSPropertyOp20
 70
     1
102
RTVSPropertyOp21
 70
     1
102
RTVSPropertyOp22
 70
     1
102
RTVSPropertyOp23
 70
     1
102
RTVSPropertyOp24
 70
     1
102
RTVSPropertyOp25
 70
     1
102
RTVSPropertyOp26
 70
     1
102
RTVSPropertyOp27
 70
     1
102
RTVSPropertyOp28
 70
     1
102
RTVSPropertyOp29
 70
     1
102
RTVSPropertyOp30
 70
     1
102
RTVSPropertyOp31
 70
     1
102
RTVSPropertyOp32
 70
     1
102
RTVSPropertyOp33
 70
     1
102
RTVSPropertyOp34
 70
     1
102
RTVSPropertyOp35
 70
     1
102
RTVSPropertyOp36
 70
     1
102
RTVSPropertyOp37
 70
     1
102
RTVSPropertyOp38
 70
     1
102
RTVSPropertyOp39
 70
     1
102
RTVSPropertyOp40
 70
     1
102
RTVSPropertyOp41
 70
     1
102
RTVSPropertyOp42
 70
     1
102
RTVSPropertyOp43
 70
     1
102
RTVSPropertyOp44
 70
     1
102
RTVSPropertyOp45
 70
     1
102
RTVSPropertyOp46
 70
     1
102
RTVSPropertyOp47
 70
     1
102
RTVSPropertyOp48
 70
     1
102
RTVSPropertyOp49
 70
     1
102
RTVSPropertyOp50
 70
     1
102
RTVSPropertyOp51
 70
     0
102
RTVSPropertyOp52
 70
     0
102
RTVSPropertyOp53
 70
     1
102
RTVSPropertyOp54
 70
     1
102
RTVSPropertyOp55
 70
     1
102
RTVSPropertyOp56
 70
     1
102
RTVSPropertyOp57
 70
     1
102
RTVSPropertyOp58
 70
     1
102
RTVSPropertyOp59
 70
     1
102
RTVSPropertyOp60
 70
     1
102
RTVSPropertyOp61
 70
     1
102
RTVSPropertyOp62
 70
     1
  0
XRECORD
  5
32C
102
{ACAD_REACTORS
330
32B
102
}
330
32B
100
AcDbXrecord
280
     1
102
RTVSPost2010Prop28
280
     0
102
RTVSPost2010PropOp28
 70
     1
102
RTVSPost2010Prop29
280
     1
102
RTVSPost2010PropOp29
 70
     1
102
RTVSPost2010Prop30
280
     1
102
RTVSPost2010PropOp30
 70
     1
102
RTVSPost2010Prop31
280
     0
102
RTVSPost2010PropOp31
 70
     1
102
RTVSPost2010Prop32
280
     0
102
RTVSPost2010PropOp32
 70
     1
102
RTVSPost2010Prop33
280
     0
102
RTVSPost2010PropOp33
 70
     1
102
RTVSPost2010Prop34
280
     0
102
RTVSPost2010PropOp34
 70
     1
102
RTVSPost2010Prop35
280
     0
102
RTVSPost2010PropOp35
 70
     1
102
RTVSPost2010Prop36
280
     0
102
RTVSPost2010PropOp36
 70
     1
102
RTVSPost2010Prop37
 90
       50
102
RTVSPost2010PropOp37
 70
     1
102
RTVSPost2010Prop38
140
0.0
102
RTVSPost2010PropOp38
 70
     1
102
RTVSPost2010Prop39
140
1.0
102
RTVSPost2010PropOp39
 70
     1
102
RTVSPost2010Prop40
 90
        0
102
RTVSPost2010PropOp40
 70
     1
102
RTVSPost2010Prop41ColorIndex
 90
       18
102
RTVSPost2010Prop41ColorRGB
 90
        0
102
RTVSPost2010PropOp41
 70
     1
102
RTVSPost2010Prop42
 90
       50
102
RTVSPost2010PropOp42
 70
     1
102
RTVSPost2010Prop43
 90
        3
102
RTVSPost2010PropOp43
 70
     1
102
RTVSPost2010Prop44ColorIndex
 90
        5
102
RTVSPost2010Prop44ColorRGB
 90
      255
102
RTVSPost2010PropOp44
 70
     1
102
RTVSPost2010Prop45
280
     0
102
RTVSPost2010PropOp45
 70
     1
102
RTVSPost2010Prop46
 90
       50
102
RTVSPost2010PropOp46
 70
     1
102
RTVSPost2010Prop47
 90
       50
102
RTVSPost2010PropOp47
 70
     1
102
RTVSPost2010Prop48
 90
       50
102
RTVSPost2010PropOp48
 70
     1
102
RTVSPost2010Prop49
280
     0
102
RTVSPost2010PropOp49
 70
     1
102
RTVSPost2010Prop50
 90
       50
102
RTVSPost2010PropOp50
 70
     1
102
RTVSPost2010Prop51ColorIndex
 90
      256
102
RTVSPost2010Prop51ColorRGB
 90
-16777216
102
RTVSPost2010PropOp51
 70
     0
102
RTVSPost2010Prop52
140
1.0
102
RTVSPost2010PropOp52
 70
     0
102
RTVSPost2010Prop53
 90
        2
102
RTVSPost2010PropOp53
 70
     1
102
RTVSPost2010Prop54
  1
strokes_ogs.tif
102
RTVSPost2010PropOp54
 70
     1
102
RTVSPost2010Prop55
280
     0
102
RTVSPost2010PropOp55
 70
     1
102
RTVSPost2010Prop56
140
1.0
102
RTVSPost2010PropOp56
 70
     1
102
RTVSPost2010Prop57
140
1.0
102
RTVSPost2010PropOp57
 70
     1
102
RTVSPropertyOp0
 70
     1
102
RTVSPropertyOp1
 70
     1
102
RTVSPropertyOp2
 70
     1
102
RTVSPropertyOp3
 70
     1
102
RTVSPropertyOp4
 70
     1
102
RTVSPropertyOp5
 70
     1
102
RTVSPropertyOp6
 70
     1
102
RTVSPropertyOp7
 70
     1
102
RTVSPropertyOp8
 70
     1
102
RTVSPropertyOp9
 70
     1
102
RTVSPropertyOp10
 70
     1
102
RTVSPropertyOp11
 70
     1
102
RTVSPropertyOp12
 70
     1
102
RTVSPropertyOp13
 70
     1
102
RTVSPropertyOp14
 70
     1
102
RTVSPropertyOp15
 70
     1
102
RTVSPropertyOp16
 70
     1
102
RTVSPropertyOp17
 70
     1
102
RTVSPropertyOp18
 70
     1
102
RTVSPropertyOp19
 70
     1
102
RTVSPropertyOp20
 70
     1
102
RTVSPropertyOp21
 70
     1
102
RTVSPropertyOp22
 70
     1
102
RTVSPropertyOp23
 70
     1
102
RTVSPropertyOp24
 70
     1
102
RTVSPropertyOp25
 70
     1
102
RTVSPropertyOp26
 70
     1
102
RTVSPropertyOp27
 70
     1
102
RTVSPropertyOp28
 70
     1
102
RTVSPropertyOp29
 70
     1
102
RTVSPropertyOp30
 70
     1
102
RTVSPropertyOp31
 70
     1
102
RTVSPropertyOp32
 70
     1
102
RTVSPropertyOp33
 70
     1
102
RTVSPropertyOp34
 70
     1
102
RTVSPropertyOp35
 70
     1
102
RTVSPropertyOp36
 70
     1
102
RTVSPropertyOp37
 70
     1
102
RTVSPropertyOp38
 70
     1
102
RTVSPropertyOp39
 70
     1
102
RTVSPropertyOp40
 70
     1
102
RTVSPropertyOp41
 70
     1
102
RTVSPropertyOp42
 70
     1
102
RTVSPropertyOp43
 70
     1
102
RTVSPropertyOp44
 70
     1
102
RTVSPropertyOp45
 70
     1
102
RTVSPropertyOp46
 70
     1
102
RTVSPropertyOp47
 70
     1
102
RTVSPropertyOp48
 70
     1
102
RTVSPropertyOp49
 70
     1
102
RTVSPropertyOp50
 70
     1
102
RTVSPropertyOp51
 70
     0
102
RTVSPropertyOp52
 70
     0
102
RTVSPropertyOp53
 70
     1
102
RTVSPropertyOp54
 70
     1
102
RTVSPropertyOp55
 70
     1
102
RTVSPropertyOp56
 70
     1
102
RTVSPropertyOp57
 70
     1
102
RTVSPropertyOp58
 70
     1
102
RTVSPropertyOp59
 70
     1
102
RTVSPropertyOp60
 70
     1
102
RTVSPropertyOp61
 70
     1
102
RTVSPropertyOp62
 70
     1
  0
XRECORD
  5
334
102
{ACAD_REACTORS
330
333
102
}
330
333
100
AcDbXrecord
280
     1
102
RTVSPost2010Prop28
280
     0
102
RTVSPost2010PropOp28
 70
     1
102
RTVSPost2010Prop29
280
     1
102
RTVSPost2010PropOp29
 70
     1
102
RTVSPost2010Prop30
280
     1
102
RTVSPost2010PropOp30
 70
     1
102
RTVSPost2010Prop31
280
     0
102
RTVSPost2010PropOp31
 70
     1
102
RTVSPost2010Prop32
280
     0
102
RTVSPost2010PropOp32
 70
     1
102
RTVSPost2010Prop33
280
     0
102
RTVSPost2010PropOp33
 70
     1
102
RTVSPost2010Prop34
280
     0
102
RTVSPost2010PropOp34
 70
     1
102
RTVSPost2010Prop35
280
     0
102
RTVSPost2010PropOp35
 70
     1
102
RTVSPost2010Prop36
280
     0
102
RTVSPost2010PropOp36
 70
     1
102
RTVSPost2010Prop37
 90
       50
102
RTVSPost2010PropOp37
 70
     1
102
RTVSPost2010Prop38
140
0.0
102
RTVSPost2010PropOp38
 70
     1
102
RTVSPost2010Prop39
140
1.0
102
RTVSPost2010PropOp39
 70
     1
102
RTVSPost2010Prop40
 90
        0
102
RTVSPost2010PropOp40
 70
     1
102
RTVSPost2010Prop41ColorIndex
 90
       18
102
RTVSPost2010Prop41ColorRGB
 90
        0
102
RTVSPost2010PropOp41
 70
     1
102
RTVSPost2010Prop42
 90
       50
102
RTVSPost2010PropOp42
 70
     1
102
RTVSPost2010Prop43
 90
        3
102
RTVSPost2010PropOp43
 70
     1
102
RTVSPost2010Prop44ColorIndex
 90
        5
102
RTVSPost2010Prop44ColorRGB
 90
      255
102
RTVSPost2010PropOp44
 70
     1
102
RTVSPost2010Prop45
280
     0
102
RTVSPost2010PropOp45
 70
     1
102
RTVSPost2010Prop46
 90
       50
102
RTVSPost2010PropOp46
 70
     1
102
RTVSPost2010Prop47
 90
       50
102
RTVSPost2010PropOp47
 70
     1
102
RTVSPost2010Prop48
 90
       50
102
RTVSPost2010PropOp48
 70
     1
102
RTVSPost2010Prop49
280
     0
102
RTVSPost2010PropOp49
 70
     1
102
RTVSPost2010Prop50
 90
       50
102
RTVSPost2010PropOp50
 70
     1
102
RTVSPost2010Prop51ColorIndex
 90
      256
102
RTVSPost2010Prop51ColorRGB
 90
-16777216
102
RTVSPost2010PropOp51
 70
     0
102
RTVSPost2010Prop52
140
1.0
102
RTVSPost2010PropOp52
 70
     0
102
RTVSPost2010Prop53
 90
        2
102
RTVSPost2010PropOp53
 70
     1
102
RTVSPost2010Prop54
  1
strokes_ogs.tif
102
RTVSPost2010PropOp54
 70
     1
102
RTVSPost2010Prop55
280
     0
102
RTVSPost2010PropOp55
 70
     1
102
RTVSPost2010Prop56
140
1.0
102
RTVSPost2010PropOp56
 70
     1
102
RTVSPost2010Prop57
140
1.0
102
RTVSPost2010PropOp57
 70
     1
102
RTVSPropertyOp0
 70
     1
102
RTVSPropertyOp1
 70
     1
102
RTVSPropertyOp2
 70
     1
102
RTVSPropertyOp3
 70
     1
102
RTVSPropertyOp4
 70
     1
102
RTVSPropertyOp5
 70
     1
102
RTVSPropertyOp6
 70
     1
102
RTVSPropertyOp7
 70
     1
102
RTVSPropertyOp8
 70
     1
102
RTVSPropertyOp9
 70
     1
102
RTVSPropertyOp10
 70
     1
102
RTVSPropertyOp11
 70
     1
102
RTVSPropertyOp12
 70
     1
102
RTVSPropertyOp13
 70
     1
102
RTVSPropertyOp14
 70
     1
102
RTVSPropertyOp15
 70
     1
102
RTVSPropertyOp16
 70
     1
102
RTVSPropertyOp17
 70
     1
102
RTVSPropertyOp18
 70
     1
102
RTVSPropertyOp19
 70
     1
102
RTVSPropertyOp20
 70
     1
102
RTVSPropertyOp21
 70
     1
102
RTVSPropertyOp22
 70
     1
102
RTVSPropertyOp23
 70
     1
102
RTVSPropertyOp24
 70
     1
102
RTVSPropertyOp25
 70
     1
102
RTVSPropertyOp26
 70
     1
102
RTVSPropertyOp27
 70
     1
102
RTVSPropertyOp28
 70
     1
102
RTVSPropertyOp29
 70
     1
102
RTVSPropertyOp30
 70
     1
102
RTVSPropertyOp31
 70
     1
102
RTVSPropertyOp32
 70
     1
102
RTVSPropertyOp33
 70
     1
102
RTVSPropertyOp34
 70
     1
102
RTVSPropertyOp35
 70
     1
102
RTVSPropertyOp36
 70
     1
102
RTVSPropertyOp37
 70
     1
102
RTVSPropertyOp38
 70
     1
102
RTVSPropertyOp39
 70
     1
102
RTVSPropertyOp40
 70
     1
102
RTVSPropertyOp41
 70
     1
102
RTVSPropertyOp42
 70
     1
102
RTVSPropertyOp43
 70
     1
102
RTVSPropertyOp44
 70
     1
102
RTVSPropertyOp45
 70
     1
102
RTVSPropertyOp46
 70
     1
102
RTVSPropertyOp47
 70
     1
102
RTVSPropertyOp48
 70
     1
102
RTVSPropertyOp49
 70
     1
102
RTVSPropertyOp50
 70
     1
102
RTVSPropertyOp51
 70
     0
102
RTVSPropertyOp52
 70
     0
102
RTVSPropertyOp53
 70
     1
102
RTVSPropertyOp54
 70
     1
102
RTVSPropertyOp55
 70
     1
102
RTVSPropertyOp56
 70
     1
102
RTVSPropertyOp57
 70
     1
102
RTVSPropertyOp58
 70
     1
102
RTVSPropertyOp59
 70
     1
102
RTVSPropertyOp60
 70
     1
102
RTVSPropertyOp61
 70
     1
102
RTVSPropertyOp62
 70
     1
  0
XRECORD
  5
346
102
{ACAD_REACTORS
330
345
102
}
330
345
100
AcDbXrecord
280
     1
102
RTVSPost2010Prop28
280
     0
102
RTVSPost2010PropOp28
 70
     1
102
RTVSPost2010Prop29
280
     1
102
RTVSPost2010PropOp29
 70
     1
102
RTVSPost2010Prop30
280
     1
102
RTVSPost2010PropOp30
 70
     1
102
RTVSPost2010Prop31
280
     0
102
RTVSPost2010PropOp31
 70
     1
102
RTVSPost2010Prop32
280
     0
102
RTVSPost2010PropOp32
 70
     1
102
RTVSPost2010Prop33
280
     0
102
RTVSPost2010PropOp33
 70
     1
102
RTVSPost2010Prop34
280
     0
102
RTVSPost2010PropOp34
 70
     1
102
RTVSPost2010Prop35
280
     0
102
RTVSPost2010PropOp35
 70
     1
102
RTVSPost2010Prop36
280
     0
102
RTVSPost2010PropOp36
 70
     1
102
RTVSPost2010Prop37
 90
       50
102
RTVSPost2010PropOp37
 70
     1
102
RTVSPost2010Prop38
140
0.0
102
RTVSPost2010PropOp38
 70
     1
102
RTVSPost2010Prop39
140
1.0
102
RTVSPost2010PropOp39
 70
     1
102
RTVSPost2010Prop40
 90
        0
102
RTVSPost2010PropOp40
 70
     1
102
RTVSPost2010Prop41ColorIndex
 90
       18
102
RTVSPost2010Prop41ColorRGB
 90
        0
102
RTVSPost2010PropOp41
 70
     1
102
RTVSPost2010Prop42
 90
       50
102
RTVSPost2010PropOp42
 70
     1
102
RTVSPost2010Prop43
 90
        3
102
RTVSPost2010PropOp43
 70
     1
102
RTVSPost2010Prop44ColorIndex
 90
        5
102
RTVSPost2010Prop44ColorRGB
 90
      255
102
RTVSPost2010PropOp44
 70
     1
102
RTVSPost2010Prop45
280
     0
102
RTVSPost2010PropOp45
 70
     1
102
RTVSPost2010Prop46
 90
       50
102
RTVSPost2010PropOp46
 70
     1
102
RTVSPost2010Prop47
 90
       50
102
RTVSPost2010PropOp47
 70
     1
102
RTVSPost2010Prop48
 90
       50
102
RTVSPost2010PropOp48
 70
     1
102
RTVSPost2010Prop49
280
     0
102
RTVSPost2010PropOp49
 70
     1
102
RTVSPost2010Prop50
 90
       50
102
RTVSPost2010PropOp50
 70
     1
102
RTVSPost2010Prop51ColorIndex
 90
      256
102
RTVSPost2010Prop51ColorRGB
 90
-16777216
102
RTVSPost2010PropOp51
 70
     0
102
RTVSPost2010Prop52
140
1.0
102
RTVSPost2010PropOp52
 70
     0
102
RTVSPost2010Prop53
 90
        2
102
RTVSPost2010PropOp53
 70
     1
102
RTVSPost2010Prop54
  1
strokes_ogs.tif
102
RTVSPost2010PropOp54
 70
     1
102
RTVSPost2010Prop55
280
     0
102
RTVSPost2010PropOp55
 70
     1
102
RTVSPost2010Prop56
140
1.0
102
RTVSPost2010PropOp56
 70
     1
102
RTVSPost2010Prop57
140
1.0
102
RTVSPost2010PropOp57
 70
     1
102
RTVSPropertyOp0
 70
     0
102
RTVSPropertyOp1
 70
     0
102
RTVSPropertyOp2
 70
     0
102
RTVSPropertyOp3
 70
     0
102
RTVSPropertyOp4
 70
     0
102
RTVSPropertyOp5
 70
     0
102
RTVSPropertyOp6
 70
     0
102
RTVSPropertyOp7
 70
     0
102
RTVSPropertyOp8
 70
     0
102
RTVSPropertyOp9
 70
     0
102
RTVSPropertyOp10
 70
     0
102
RTVSPropertyOp11
 70
     0
102
RTVSPropertyOp12
 70
     0
102
RTVSPropertyOp13
 70
     0
102
RTVSPropertyOp14
 70
     2
102
RTVSPropertyOp15
 70
     0
102
RTVSPropertyOp16
 70
     0
102
RTVSPropertyOp17
 70
     0
102
RTVSPropertyOp18
 70
     0
102
RTVSPropertyOp19
 70
     0
102
RTVSPropertyOp20
 70
     0
102
RTVSPropertyOp21
 70
     0
102
RTVSPropertyOp22
 70
     0
102
RTVSPropertyOp23
 70
     0
102
RTVSPropertyOp24
 70
     0
102
RTVSPropertyOp25
 70
     0
102
RTVSPropertyOp26
 70
     0
102
RTVSPropertyOp27
 70
     0
102
RTVSPropertyOp28
 70
     1
102
RTVSPropertyOp29
 70
     1
102
RTVSPropertyOp30
 70
     1
102
RTVSPropertyOp31
 70
     1
102
RTVSPropertyOp32
 70
     1
102
RTVSPropertyOp33
 70
     1
102
RTVSPropertyOp34
 70
     1
102
RTVSPropertyOp35
 70
     1
102
RTVSPropertyOp36
 70
     1
102
RTVSPropertyOp37
 70
     1
102
RTVSPropertyOp38
 70
     1
102
RTVSPropertyOp39
 70
     1
102
RTVSPropertyOp40
 70
     1
102
RTVSPropertyOp41
 70
     1
102
RTVSPropertyOp42
 70
     1
102
RTVSPropertyOp43
 70
     1
102
RTVSPropertyOp44
 70
     1
102
RTVSPropertyOp45
 70
     1
102
RTVSPropertyOp46
 70
     1
102
RTVSPropertyOp47
 70
     1
102
RTVSPropertyOp48
 70
     1
102
RTVSPropertyOp49
 70
     1
102
RTVSPropertyOp50
 70
     1
102
RTVSPropertyOp51
 70
     0
102
RTVSPropertyOp52
 70
     0
102
RTVSPropertyOp53
 70
     1
102
RTVSPropertyOp54
 70
     1
102
RTVSPropertyOp55
 70
     1
102
RTVSPropertyOp56
 70
     1
102
RTVSPropertyOp57
 70
     1
102
RTVSPropertyOp58
 70
     1
102
RTVSPropertyOp59
 70
     1
102
RTVSPropertyOp60
 70
     1
102
RTVSPropertyOp61
 70
     1
102
RTVSPropertyOp62
 70
     1
  0
XRECORD
  5
340
102
{ACAD_REACTORS
330
33F
102
}
330
33F
100
AcDbXrecord
280
     1
102
RTVSPost2010Prop28
280
     0
102
RTVSPost2010PropOp28
 70
     1
102
RTVSPost2010Prop29
280
     1
102
RTVSPost2010PropOp29
 70
     1
102
RTVSPost2010Prop30
280
     1
102
RTVSPost2010PropOp30
 70
     1
102
RTVSPost2010Prop31
280
     0
102
RTVSPost2010PropOp31
 70
     1
102
RTVSPost2010Prop32
280
     0
102
RTVSPost2010PropOp32
 70
     1
102
RTVSPost2010Prop33
280
     0
102
RTVSPost2010PropOp33
 70
     1
102
RTVSPost2010Prop34
280
     0
102
RTVSPost2010PropOp34
 70
     1
102
RTVSPost2010Prop35
280
     0
102
RTVSPost2010PropOp35
 70
     1
102
RTVSPost2010Prop36
280
     0
102
RTVSPost2010PropOp36
 70
     1
102
RTVSPost2010Prop37
 90
       50
102
RTVSPost2010PropOp37
 70
     1
102
RTVSPost2010Prop38
140
0.0
102
RTVSPost2010PropOp38
 70
     1
102
RTVSPost2010Prop39
140
1.0
102
RTVSPost2010PropOp39
 70
     1
102
RTVSPost2010Prop40
 90
        0
102
RTVSPost2010PropOp40
 70
     1
102
RTVSPost2010Prop41ColorIndex
 90
       18
102
RTVSPost2010Prop41ColorRGB
 90
        0
102
RTVSPost2010PropOp41
 70
     1
102
RTVSPost2010Prop42
 90
       50
102
RTVSPost2010PropOp42
 70
     1
102
RTVSPost2010Prop43
 90
        3
102
RTVSPost2010PropOp43
 70
     1
102
RTVSPost2010Prop44ColorIndex
 90
        5
102
RTVSPost2010Prop44ColorRGB
 90
      255
102
RTVSPost2010PropOp44
 70
     1
102
RTVSPost2010Prop45
280
     0
102
RTVSPost2010PropOp45
 70
     1
102
RTVSPost2010Prop46
 90
       50
102
RTVSPost2010PropOp46
 70
     1
102
RTVSPost2010Prop47
 90
       50
102
RTVSPost2010PropOp47
 70
     1
102
RTVSPost2010Prop48
 90
       50
102
RTVSPost2010PropOp48
 70
     1
102
RTVSPost2010Prop49
280
     0
102
RTVSPost2010PropOp49
 70
     1
102
RTVSPost2010Prop50
 90
       50
102
RTVSPost2010PropOp50
 70
     1
102
RTVSPost2010Prop51ColorIndex
 90
      256
102
RTVSPost2010Prop51ColorRGB
 90
-16777216
102
RTVSPost2010PropOp51
 70
     0
102
RTVSPost2010Prop52
140
1.0
102
RTVSPost2010PropOp52
 70
     0
102
RTVSPost2010Prop53
 90
        2
102
RTVSPost2010PropOp53
 70
     1
102
RTVSPost2010Prop54
  1
strokes_ogs.tif
102
RTVSPost2010PropOp54
 70
     1
102
RTVSPost2010Prop55
280
     0
102
RTVSPost2010PropOp55
 70
     1
102
RTVSPost2010Prop56
140
1.0
102
RTVSPost2010PropOp56
 70
     1
102
RTVSPost2010Prop57
140
1.0
102
RTVSPost2010PropOp57
 70
     1
102
RTVSPropertyOp0
 70
     1
102
RTVSPropertyOp1
 70
     1
102
RTVSPropertyOp2
 70
     1
102
RTVSPropertyOp3
 70
     1
102
RTVSPropertyOp4
 70
     1
102
RTVSPropertyOp5
 70
     1
102
RTVSPropertyOp6
 70
     1
102
RTVSPropertyOp7
 70
     1
102
RTVSPropertyOp8
 70
     1
102
RTVSPropertyOp9
 70
     1
102
RTVSPropertyOp10
 70
     1
102
RTVSPropertyOp11
 70
     1
102
RTVSPropertyOp12
 70
     1
102
RTVSPropertyOp13
 70
     1
102
RTVSPropertyOp14
 70
     1
102
RTVSPropertyOp15
 70
     1
102
RTVSPropertyOp16
 70
     1
102
RTVSPropertyOp17
 70
     1
102
RTVSPropertyOp18
 70
     1
102
RTVSPropertyOp19
 70
     1
102
RTVSPropertyOp20
 70
     1
102
RTVSPropertyOp21
 70
     1
102
RTVSPropertyOp22
 70
     1
102
RTVSPropertyOp23
 70
     1
102
RTVSPropertyOp24
 70
     1
102
RTVSPropertyOp25
 70
     1
102
RTVSPropertyOp26
 70
     1
102
RTVSPropertyOp27
 70
     1
102
RTVSPropertyOp28
 70
     1
102
RTVSPropertyOp29
 70
     1
102
RTVSPropertyOp30
 70
     1
102
RTVSPropertyOp31
 70
     1
102
RTVSPropertyOp32
 70
     1
102
RTVSPropertyOp33
 70
     1
102
RTVSPropertyOp34
 70
     1
102
RTVSPropertyOp35
 70
     1
102
RTVSPropertyOp36
 70
     1
102
RTVSPropertyOp37
 70
     1
102
RTVSPropertyOp38
 70
     1
102
RTVSPropertyOp39
 70
     1
102
RTVSPropertyOp40
 70
     1
102
RTVSPropertyOp41
 70
     1
102
RTVSPropertyOp42
 70
     1
102
RTVSPropertyOp43
 70
     1
102
RTVSPropertyOp44
 70
     1
102
RTVSPropertyOp45
 70
     1
102
RTVSPropertyOp46
 70
     1
102
RTVSPropertyOp47
 70
     1
102
RTVSPropertyOp48
 70
     1
102
RTVSPropertyOp49
 70
     1
102
RTVSPropertyOp50
 70
     1
102
RTVSPropertyOp51
 70
     0
102
RTVSPropertyOp52
 70
     0
102
RTVSPropertyOp53
 70
     1
102
RTVSPropertyOp54
 70
     1
102
RTVSPropertyOp55
 70
     1
102
RTVSPropertyOp56
 70
     1
102
RTVSPropertyOp57
 70
     1
102
RTVSPropertyOp58
 70
     1
102
RTVSPropertyOp59
 70
     1
102
RTVSPropertyOp60
 70
     1
102
RTVSPropertyOp61
 70
     1
102
RTVSPropertyOp62
 70
     1
  0
XRECORD
  5
348
102
{ACAD_REACTORS
330
347
102
}
330
347
100
AcDbXrecord
280
     1
102
RTVSPost2010Prop28
280
     0
102
RTVSPost2010PropOp28
 70
     1
102
RTVSPost2010Prop29
280
     1
102
RTVSPost2010PropOp29
 70
     1
102
RTVSPost2010Prop30
280
     1
102
RTVSPost2010PropOp30
 70
     1
102
RTVSPost2010Prop31
280
     0
102
RTVSPost2010PropOp31
 70
     1
102
RTVSPost2010Prop32
280
     0
102
RTVSPost2010PropOp32
 70
     1
102
RTVSPost2010Prop33
280
     0
102
RTVSPost2010PropOp33
 70
     1
102
RTVSPost2010Prop34
280
     0
102
RTVSPost2010PropOp34
 70
     1
102
RTVSPost2010Prop35
280
     0
102
RTVSPost2010PropOp35
 70
     1
102
RTVSPost2010Prop36
280
     0
102
RTVSPost2010PropOp36
 70
     1
102
RTVSPost2010Prop37
 90
       50
102
RTVSPost2010PropOp37
 70
     1
102
RTVSPost2010Prop38
140
0.0
102
RTVSPost2010PropOp38
 70
     1
102
RTVSPost2010Prop39
140
1.0
102
RTVSPost2010PropOp39
 70
     1
102
RTVSPost2010Prop40
 90
        0
102
RTVSPost2010PropOp40
 70
     1
102
RTVSPost2010Prop41ColorIndex
 90
       18
102
RTVSPost2010Prop41ColorRGB
 90
        0
102
RTVSPost2010PropOp41
 70
     1
102
RTVSPost2010Prop42
 90
       50
102
RTVSPost2010PropOp42
 70
     1
102
RTVSPost2010Prop43
 90
        3
102
RTVSPost2010PropOp43
 70
     1
102
RTVSPost2010Prop44ColorIndex
 90
        5
102
RTVSPost2010Prop44ColorRGB
 90
      255
102
RTVSPost2010PropOp44
 70
     1
102
RTVSPost2010Prop45
280
     0
102
RTVSPost2010PropOp45
 70
     1
102
RTVSPost2010Prop46
 90
       50
102
RTVSPost2010PropOp46
 70
     1
102
RTVSPost2010Prop47
 90
       50
102
RTVSPost2010PropOp47
 70
     1
102
RTVSPost2010Prop48
 90
       50
102
RTVSPost2010PropOp48
 70
     1
102
RTVSPost2010Prop49
280
     0
102
RTVSPost2010PropOp49
 70
     1
102
RTVSPost2010Prop50
 90
       50
102
RTVSPost2010PropOp50
 70
     1
102
RTVSPost2010Prop51ColorIndex
 90
      256
102
RTVSPost2010Prop51ColorRGB
 90
-16777216
102
RTVSPost2010PropOp51
 70
     0
102
RTVSPost2010Prop52
140
1.0
102
RTVSPost2010PropOp52
 70
     0
102
RTVSPost2010Prop53
 90
        2
102
RTVSPost2010PropOp53
 70
     1
102
RTVSPost2010Prop54
  1
strokes_ogs.tif
102
RTVSPost2010PropOp54
 70
     1
102
RTVSPost2010Prop55
280
     0
102
RTVSPost2010PropOp55
 70
     1
102
RTVSPost2010Prop56
140
1.0
102
RTVSPost2010PropOp56
 70
     1
102
RTVSPost2010Prop57
140
1.0
102
RTVSPost2010PropOp57
 70
     1
102
RTVSPropertyOp0
 70
     0
102
RTVSPropertyOp1
 70
     0
102
RTVSPropertyOp2
 70
     0
102
RTVSPropertyOp3
 70
     0
102
RTVSPropertyOp4
 70
     0
102
RTVSPropertyOp5
 70
     0
102
RTVSPropertyOp6
 70
     0
102
RTVSPropertyOp7
 70
     0
102
RTVSPropertyOp8
 70
     0
102
RTVSPropertyOp9
 70
     0
102
RTVSPropertyOp10
 70
     0
102
RTVSPropertyOp11
 70
     0
102
RTVSPropertyOp12
 70
     0
102
RTVSPropertyOp13
 70
     0
102
RTVSPropertyOp14
 70
     2
102
RTVSPropertyOp15
 70
     0
102
RTVSPropertyOp16
 70
     0
102
RTVSPropertyOp17
 70
     0
102
RTVSPropertyOp18
 70
     0
102
RTVSPropertyOp19
 70
     0
102
RTVSPropertyOp20
 70
     0
102
RTVSPropertyOp21
 70
     0
102
RTVSPropertyOp22
 70
     0
102
RTVSPropertyOp23
 70
     0
102
RTVSPropertyOp24
 70
     0
102
RTVSPropertyOp25
 70
     0
102
RTVSPropertyOp26
 70
     0
102
RTVSPropertyOp27
 70
     0
102
RTVSPropertyOp28
 70
     1
102
RTVSPropertyOp29
 70
     1
102
RTVSPropertyOp30
 70
     1
102
RTVSPropertyOp31
 70
     1
102
RTVSPropertyOp32
 70
     1
102
RTVSPropertyOp33
 70
     1
102
RTVSPropertyOp34
 70
     1
102
RTVSPropertyOp35
 70
     1
102
RTVSPropertyOp36
 70
     1
102
RTVSPropertyOp37
 70
     1
102
RTVSPropertyOp38
 70
     1
102
RTVSPropertyOp39
 70
     1
102
RTVSPropertyOp40
 70
     1
102
RTVSPropertyOp41
 70
     1
102
RTVSPropertyOp42
 70
     1
102
RTVSPropertyOp43
 70
     1
102
RTVSPropertyOp44
 70
     1
102
RTVSPropertyOp45
 70
     1
102
RTVSPropertyOp46
 70
     1
102
RTVSPropertyOp47
 70
     1
102
RTVSPropertyOp48
 70
     1
102
RTVSPropertyOp49
 70
     1
102
RTVSPropertyOp50
 70
     1
102
RTVSPropertyOp51
 70
     0
102
RTVSPropertyOp52
 70
     0
102
RTVSPropertyOp53
 70
     1
102
RTVSPropertyOp54
 70
     1
102
RTVSPropertyOp55
 70
     1
102
RTVSPropertyOp56
 70
     1
102
RTVSPropertyOp57
 70
     1
102
RTVSPropertyOp58
 70
     1
102
RTVSPropertyOp59
 70
     1
102
RTVSPropertyOp60
 70
     1
102
RTVSPropertyOp61
 70
     1
102
RTVSPropertyOp62
 70
     1
  0
XRECORD
  5
338
102
{ACAD_REACTORS
330
337
102
}
330
337
100
AcDbXrecord
280
     1
102
RTVSPost2010Prop28
280
     0
102
RTVSPost2010PropOp28
 70
     1
102
RTVSPost2010Prop29
280
     1
102
RTVSPost2010PropOp29
 70
     1
102
RTVSPost2010Prop30
280
     1
102
RTVSPost2010PropOp30
 70
     1
102
RTVSPost2010Prop31
280
     0
102
RTVSPost2010PropOp31
 70
     1
102
RTVSPost2010Prop32
280
     0
102
RTVSPost2010PropOp32
 70
     1
102
RTVSPost2010Prop33
280
     0
102
RTVSPost2010PropOp33
 70
     1
102
RTVSPost2010Prop34
280
     0
102
RTVSPost2010PropOp34
 70
     1
102
RTVSPost2010Prop35
280
     0
102
RTVSPost2010PropOp35
 70
     1
102
RTVSPost2010Prop36
280
     0
102
RTVSPost2010PropOp36
 70
     1
102
RTVSPost2010Prop37
 90
       50
102
RTVSPost2010PropOp37
 70
     1
102
RTVSPost2010Prop38
140
0.0
102
RTVSPost2010PropOp38
 70
     1
102
RTVSPost2010Prop39
140
1.0
102
RTVSPost2010PropOp39
 70
     1
102
RTVSPost2010Prop40
 90
        0
102
RTVSPost2010PropOp40
 70
     1
102
RTVSPost2010Prop41ColorIndex
 90
       18
102
RTVSPost2010Prop41ColorRGB
 90
        0
102
RTVSPost2010PropOp41
 70
     1
102
RTVSPost2010Prop42
 90
       50
102
RTVSPost2010PropOp42
 70
     1
102
RTVSPost2010Prop43
 90
        3
102
RTVSPost2010PropOp43
 70
     1
102
RTVSPost2010Prop44ColorIndex
 90
        5
102
RTVSPost2010Prop44ColorRGB
 90
      255
102
RTVSPost2010PropOp44
 70
     1
102
RTVSPost2010Prop45
280
     0
102
RTVSPost2010PropOp45
 70
     1
102
RTVSPost2010Prop46
 90
       50
102
RTVSPost2010PropOp46
 70
     1
102
RTVSPost2010Prop47
 90
       50
102
RTVSPost2010PropOp47
 70
     1
102
RTVSPost2010Prop48
 90
       50
102
RTVSPost2010PropOp48
 70
     1
102
RTVSPost2010Prop49
280
     0
102
RTVSPost2010PropOp49
 70
     1
102
RTVSPost2010Prop50
 90
       50
102
RTVSPost2010PropOp50
 70
     1
102
RTVSPost2010Prop51ColorIndex
 90
      256
102
RTVSPost2010Prop51ColorRGB
 90
-16777216
102
RTVSPost2010PropOp51
 70
     0
102
RTVSPost2010Prop52
140
1.0
102
RTVSPost2010PropOp52
 70
     0
102
RTVSPost2010Prop53
 90
        2
102
RTVSPost2010PropOp53
 70
     1
102
RTVSPost2010Prop54
  1
strokes_ogs.tif
102
RTVSPost2010PropOp54
 70
     1
102
RTVSPost2010Prop55
280
     0
102
RTVSPost2010PropOp55
 70
     1
102
RTVSPost2010Prop56
140
1.0
102
RTVSPost2010PropOp56
 70
     1
102
RTVSPost2010Prop57
140
1.0
102
RTVSPost2010PropOp57
 70
     1
102
RTVSPropertyOp0
 70
     1
102
RTVSPropertyOp1
 70
     1
102
RTVSPropertyOp2
 70
     1
102
RTVSPropertyOp3
 70
     1
102
RTVSPropertyOp4
 70
     1
102
RTVSPropertyOp5
 70
     1
102
RTVSPropertyOp6
 70
     1
102
RTVSPropertyOp7
 70
     1
102
RTVSPropertyOp8
 70
     1
102
RTVSPropertyOp9
 70
     1
102
RTVSPropertyOp10
 70
     1
102
RTVSPropertyOp11
 70
     1
102
RTVSPropertyOp12
 70
     1
102
RTVSPropertyOp13
 70
     1
102
RTVSPropertyOp14
 70
     1
102
RTVSPropertyOp15
 70
     1
102
RTVSPropertyOp16
 70
     1
102
RTVSPropertyOp17
 70
     1
102
RTVSPropertyOp18
 70
     1
102
RTVSPropertyOp19
 70
     1
102
RTVSPropertyOp20
 70
     1
102
RTVSPropertyOp21
 70
     1
102
RTVSPropertyOp22
 70
     1
102
RTVSPropertyOp23
 70
     1
102
RTVSPropertyOp24
 70
     1
102
RTVSPropertyOp25
 70
     1
102
RTVSPropertyOp26
 70
     1
102
RTVSPropertyOp27
 70
     1
102
RTVSPropertyOp28
 70
     1
102
RTVSPropertyOp29
 70
     1
102
RTVSPropertyOp30
 70
     1
102
RTVSPropertyOp31
 70
     1
102
RTVSPropertyOp32
 70
     1
102
RTVSPropertyOp33
 70
     1
102
RTVSPropertyOp34
 70
     1
102
RTVSPropertyOp35
 70
     1
102
RTVSPropertyOp36
 70
     1
102
RTVSPropertyOp37
 70
     1
102
RTVSPropertyOp38
 70
     1
102
RTVSPropertyOp39
 70
     1
102
RTVSPropertyOp40
 70
     1
102
RTVSPropertyOp41
 70
     1
102
RTVSPropertyOp42
 70
     1
102
RTVSPropertyOp43
 70
     1
102
RTVSPropertyOp44
 70
     1
102
RTVSPropertyOp45
 70
     1
102
RTVSPropertyOp46
 70
     1
102
RTVSPropertyOp47
 70
     1
102
RTVSPropertyOp48
 70
     1
102
RTVSPropertyOp49
 70
     1
102
RTVSPropertyOp50
 70
     1
102
RTVSPropertyOp51
 70
     0
102
RTVSPropertyOp52
 70
     0
102
RTVSPropertyOp53
 70
     1
102
RTVSPropertyOp54
 70
     1
102
RTVSPropertyOp55
 70
     1
102
RTVSPropertyOp56
 70
     1
102
RTVSPropertyOp57
 70
     1
102
RTVSPropertyOp58
 70
     1
102
RTVSPropertyOp59
 70
     1
102
RTVSPropertyOp60
 70
     1
102
RTVSPropertyOp61
 70
     1
102
RTVSPropertyOp62
 70
     1
  0
XRECORD
  5
354
102
{ACAD_REACTORS
330
353
102
}
330
353
100
AcDbXrecord
280
     1
102
RTVSPost2010Prop28
280
     0
102
RTVSPost2010PropOp28
 70
     1
102
RTVSPost2010Prop29
280
     1
102
RTVSPost2010PropOp29
 70
     1
102
RTVSPost2010Prop30
280
     1
102
RTVSPost2010PropOp30
 70
     1
102
RTVSPost2010Prop31
280
     0
102
RTVSPost2010PropOp31
 70
     1
102
RTVSPost2010Prop32
280
     0
102
RTVSPost2010PropOp32
 70
     1
102
RTVSPost2010Prop33
280
     0
102
RTVSPost2010PropOp33
 70
     1
102
RTVSPost2010Prop34
280
     0
102
RTVSPost2010PropOp34
 70
     1
102
RTVSPost2010Prop35
280
     0
102
RTVSPost2010PropOp35
 70
     1
102
RTVSPost2010Prop36
280
     0
102
RTVSPost2010PropOp36
 70
     1
102
RTVSPost2010Prop37
 90
       50
102
RTVSPost2010PropOp37
 70
     1
102
RTVSPost2010Prop38
140
0.0
102
RTVSPost2010PropOp38
 70
     1
102
RTVSPost2010Prop39
140
1.0
102
RTVSPost2010PropOp39
 70
     1
102
RTVSPost2010Prop40
 90
        0
102
RTVSPost2010PropOp40
 70
     1
102
RTVSPost2010Prop41ColorIndex
 90
       18
102
RTVSPost2010Prop41ColorRGB
 90
        0
102
RTVSPost2010PropOp41
 70
     1
102
RTVSPost2010Prop42
 90
       50
102
RTVSPost2010PropOp42
 70
     1
102
RTVSPost2010Prop43
 90
        3
102
RTVSPost2010PropOp43
 70
     1
102
RTVSPost2010Prop44ColorIndex
 90
        5
102
RTVSPost2010Prop44ColorRGB
 90
      255
102
RTVSPost2010PropOp44
 70
     1
102
RTVSPost2010Prop45
280
     0
102
RTVSPost2010PropOp45
 70
     1
102
RTVSPost2010Prop46
 90
       50
102
RTVSPost2010PropOp46
 70
     1
102
RTVSPost2010Prop47
 90
       50
102
RTVSPost2010PropOp47
 70
     1
102
RTVSPost2010Prop48
 90
       50
102
RTVSPost2010PropOp48
 70
     1
102
RTVSPost2010Prop49
280
     0
102
RTVSPost2010PropOp49
 70
     1
102
RTVSPost2010Prop50
 90
       50
102
RTVSPost2010PropOp50
 70
     1
102
RTVSPost2010Prop51ColorIndex
 90
      256
102
RTVSPost2010Prop51ColorRGB
 90
-16777216
102
RTVSPost2010PropOp51
 70
     0
102
RTVSPost2010Prop52
140
1.0
102
RTVSPost2010PropOp52
 70
     0
102
RTVSPost2010Prop53
 90
        2
102
RTVSPost2010PropOp53
 70
     1
102
RTVSPost2010Prop54
  1
strokes_ogs.tif
102
RTVSPost2010PropOp54
 70
     1
102
RTVSPost2010Prop55
280
     0
102
RTVSPost2010PropOp55
 70
     1
102
RTVSPost2010Prop56
140
1.0
102
RTVSPost2010PropOp56
 70
     1
102
RTVSPost2010Prop57
140
1.0
102
RTVSPost2010PropOp57
 70
     1
102
RTVSPropertyOp0
 70
     1
102
RTVSPropertyOp1
 70
     1
102
RTVSPropertyOp2
 70
     1
102
RTVSPropertyOp3
 70
     1
102
RTVSPropertyOp4
 70
     1
102
RTVSPropertyOp5
 70
     1
102
RTVSPropertyOp6
 70
     1
102
RTVSPropertyOp7
 70
     1
102
RTVSPropertyOp8
 70
     1
102
RTVSPropertyOp9
 70
     1
102
RTVSPropertyOp10
 70
     1
102
RTVSPropertyOp11
 70
     1
102
RTVSPropertyOp12
 70
     1
102
RTVSPropertyOp13
 70
     1
102
RTVSPropertyOp14
 70
     1
102
RTVSPropertyOp15
 70
     1
102
RTVSPropertyOp16
 70
     1
102
RTVSPropertyOp17
 70
     1
102
RTVSPropertyOp18
 70
     1
102
RTVSPropertyOp19
 70
     1
102
RTVSPropertyOp20
 70
     1
102
RTVSPropertyOp21
 70
     1
102
RTVSPropertyOp22
 70
     1
102
RTVSPropertyOp23
 70
     1
102
RTVSPropertyOp24
 70
     1
102
RTVSPropertyOp25
 70
     1
102
RTVSPropertyOp26
 70
     1
102
RTVSPropertyOp27
 70
     1
102
RTVSPropertyOp28
 70
     1
102
RTVSPropertyOp29
 70
     1
102
RTVSPropertyOp30
 70
     1
102
RTVSPropertyOp31
 70
     1
102
RTVSPropertyOp32
 70
     1
102
RTVSPropertyOp33
 70
     1
102
RTVSPropertyOp34
 70
     1
102
RTVSPropertyOp35
 70
     1
102
RTVSPropertyOp36
 70
     1
102
RTVSPropertyOp37
 70
     1
102
RTVSPropertyOp38
 70
     1
102
RTVSPropertyOp39
 70
     1
102
RTVSPropertyOp40
 70
     1
102
RTVSPropertyOp41
 70
     1
102
RTVSPropertyOp42
 70
     1
102
RTVSPropertyOp43
 70
     1
102
RTVSPropertyOp44
 70
     1
102
RTVSPropertyOp45
 70
     1
102
RTVSPropertyOp46
 70
     1
102
RTVSPropertyOp47
 70
     1
102
RTVSPropertyOp48
 70
     1
102
RTVSPropertyOp49
 70
     1
102
RTVSPropertyOp50
 70
     1
102
RTVSPropertyOp51
 70
     0
102
RTVSPropertyOp52
 70
     0
102
RTVSPropertyOp53
 70
     1
102
RTVSPropertyOp54
 70
     1
102
RTVSPropertyOp55
 70
     1
102
RTVSPropertyOp56
 70
     1
102
RTVSPropertyOp57
 70
     1
102
RTVSPropertyOp58
 70
     1
102
RTVSPropertyOp59
 70
     1
102
RTVSPropertyOp60
 70
     1
102
RTVSPropertyOp61
 70
     1
102
RTVSPropertyOp62
 70
     1
  0
XRECORD
  5
352
102
{ACAD_REACTORS
330
351
102
}
330
351
100
AcDbXrecord
280
     1
102
RTVSPost2010Prop28
280
     0
102
RTVSPost2010PropOp28
 70
     1
102
RTVSPost2010Prop29
280
     1
102
RTVSPost2010PropOp29
 70
     1
102
RTVSPost2010Prop30
280
     1
102
RTVSPost2010PropOp30
 70
     1
102
RTVSPost2010Prop31
280
     0
102
RTVSPost2010PropOp31
 70
     1
102
RTVSPost2010Prop32
280
     0
102
RTVSPost2010PropOp32
 70
     1
102
RTVSPost2010Prop33
280
     0
102
RTVSPost2010PropOp33
 70
     1
102
RTVSPost2010Prop34
280
     0
102
RTVSPost2010PropOp34
 70
     1
102
RTVSPost2010Prop35
280
     0
102
RTVSPost2010PropOp35
 70
     1
102
RTVSPost2010Prop36
280
     0
102
RTVSPost2010PropOp36
 70
     1
102
RTVSPost2010Prop37
 90
       50
102
RTVSPost2010PropOp37
 70
     1
102
RTVSPost2010Prop38
140
0.0
102
RTVSPost2010PropOp38
 70
     1
102
RTVSPost2010Prop39
140
1.0
102
RTVSPost2010PropOp39
 70
     1
102
RTVSPost2010Prop40
 90
        0
102
RTVSPost2010PropOp40
 70
     1
102
RTVSPost2010Prop41ColorIndex
 90
       18
102
RTVSPost2010Prop41ColorRGB
 90
        0
102
RTVSPost2010PropOp41
 70
     1
102
RTVSPost2010Prop42
 90
       50
102
RTVSPost2010PropOp42
 70
     1
102
RTVSPost2010Prop43
 90
        3
102
RTVSPost2010PropOp43
 70
     1
102
RTVSPost2010Prop44ColorIndex
 90
        5
102
RTVSPost2010Prop44ColorRGB
 90
      255
102
RTVSPost2010PropOp44
 70
     1
102
RTVSPost2010Prop45
280
     0
102
RTVSPost2010PropOp45
 70
     1
102
RTVSPost2010Prop46
 90
       50
102
RTVSPost2010PropOp46
 70
     1
102
RTVSPost2010Prop47
 90
       50
102
RTVSPost2010PropOp47
 70
     1
102
RTVSPost2010Prop48
 90
       50
102
RTVSPost2010PropOp48
 70
     1
102
RTVSPost2010Prop49
280
     0
102
RTVSPost2010PropOp49
 70
     1
102
RTVSPost2010Prop50
 90
       50
102
RTVSPost2010PropOp50
 70
     1
102
RTVSPost2010Prop51ColorIndex
 90
      256
102
RTVSPost2010Prop51ColorRGB
 90
-16777216
102
RTVSPost2010PropOp51
 70
     0
102
RTVSPost2010Prop52
140
1.0
102
RTVSPost2010PropOp52
 70
     0
102
RTVSPost2010Prop53
 90
        2
102
RTVSPost2010PropOp53
 70
     1
102
RTVSPost2010Prop54
  1
strokes_ogs.tif
102
RTVSPost2010PropOp54
 70
     1
102
RTVSPost2010Prop55
280
     0
102
RTVSPost2010PropOp55
 70
     1
102
RTVSPost2010Prop56
140
1.0
102
RTVSPost2010PropOp56
 70
     1
102
RTVSPost2010Prop57
140
1.0
102
RTVSPost2010PropOp57
 70
     1
102
RTVSPropertyOp0
 70
     1
102
RTVSPropertyOp1
 70
     1
102
RTVSPropertyOp2
 70
     1
102
RTVSPropertyOp3
 70
     1
102
RTVSPropertyOp4
 70
     1
102
RTVSPropertyOp5
 70
     1
102
RTVSPropertyOp6
 70
     1
102
RTVSPropertyOp7
 70
     1
102
RTVSPropertyOp8
 70
     1
102
RTVSPropertyOp9
 70
     1
102
RTVSPropertyOp10
 70
     1
102
RTVSPropertyOp11
 70
     1
102
RTVSPropertyOp12
 70
     1
102
RTVSPropertyOp13
 70
     1
102
RTVSPropertyOp14
 70
     1
102
RTVSPropertyOp15
 70
     1
102
RTVSPropertyOp16
 70
     1
102
RTVSPropertyOp17
 70
     1
102
RTVSPropertyOp18
 70
     1
102
RTVSPropertyOp19
 70
     1
102
RTVSPropertyOp20
 70
     1
102
RTVSPropertyOp21
 70
     1
102
RTVSPropertyOp22
 70
     1
102
RTVSPropertyOp23
 70
     1
102
RTVSPropertyOp24
 70
     1
102
RTVSPropertyOp25
 70
     1
102
RTVSPropertyOp26
 70
     1
102
RTVSPropertyOp27
 70
     1
102
RTVSPropertyOp28
 70
     1
102
RTVSPropertyOp29
 70
     1
102
RTVSPropertyOp30
 70
     1
102
RTVSPropertyOp31
 70
     1
102
RTVSPropertyOp32
 70
     1
102
RTVSPropertyOp33
 70
     1
102
RTVSPropertyOp34
 70
     1
102
RTVSPropertyOp35
 70
     1
102
RTVSPropertyOp36
 70
     1
102
RTVSPropertyOp37
 70
     1
102
RTVSPropertyOp38
 70
     1
102
RTVSPropertyOp39
 70
     1
102
RTVSPropertyOp40
 70
     1
102
RTVSPropertyOp41
 70
     1
102
RTVSPropertyOp42
 70
     1
102
RTVSPropertyOp43
 70
     1
102
RTVSPropertyOp44
 70
     1
102
RTVSPropertyOp45
 70
     1
102
RTVSPropertyOp46
 70
     1
102
RTVSPropertyOp47
 70
     1
102
RTVSPropertyOp48
 70
     1
102
RTVSPropertyOp49
 70
     1
102
RTVSPropertyOp50
 70
     1
102
RTVSPropertyOp51
 70
     0
102
RTVSPropertyOp52
 70
     0
102
RTVSPropertyOp53
 70
     1
102
RTVSPropertyOp54
 70
     1
102
RTVSPropertyOp55
 70
     1
102
RTVSPropertyOp56
 70
     1
102
RTVSPropertyOp57
 70
     1
102
RTVSPropertyOp58
 70
     1
102
RTVSPropertyOp59
 70
     1
102
RTVSPropertyOp60
 70
     1
102
RTVSPropertyOp61
 70
     1
102
RTVSPropertyOp62
 70
     1
  0
XRECORD
  5
34C
102
{ACAD_REACTORS
330
34B
102
}
330
34B
100
AcDbXrecord
280
     1
102
RTVSPost2010Prop28
280
     0
102
RTVSPost2010PropOp28
 70
     1
102
RTVSPost2010Prop29
280
     1
102
RTVSPost2010PropOp29
 70
     1
102
RTVSPost2010Prop30
280
     1
102
RTVSPost2010PropOp30
 70
     1
102
RTVSPost2010Prop31
280
     0
102
RTVSPost2010PropOp31
 70
     1
102
RTVSPost2010Prop32
280
     0
102
RTVSPost2010PropOp32
 70
     1
102
RTVSPost2010Prop33
280
     0
102
RTVSPost2010PropOp33
 70
     1
102
RTVSPost2010Prop34
280
     0
102
RTVSPost2010PropOp34
 70
     1
102
RTVSPost2010Prop35
280
     0
102
RTVSPost2010PropOp35
 70
     1
102
RTVSPost2010Prop36
280
     0
102
RTVSPost2010PropOp36
 70
     1
102
RTVSPost2010Prop37
 90
       50
102
RTVSPost2010PropOp37
 70
     1
102
RTVSPost2010Prop38
140
0.0
102
RTVSPost2010PropOp38
 70
     1
102
RTVSPost2010Prop39
140
1.0
102
RTVSPost2010PropOp39
 70
     1
102
RTVSPost2010Prop40
 90
        0
102
RTVSPost2010PropOp40
 70
     1
102
RTVSPost2010Prop41ColorIndex
 90
       18
102
RTVSPost2010Prop41ColorRGB
 90
        0
102
RTVSPost2010PropOp41
 70
     1
102
RTVSPost2010Prop42
 90
       50
102
RTVSPost2010PropOp42
 70
     1
102
RTVSPost2010Prop43
 90
        3
102
RTVSPost2010PropOp43
 70
     1
102
RTVSPost2010Prop44ColorIndex
 90
        5
102
RTVSPost2010Prop44ColorRGB
 90
      255
102
RTVSPost2010PropOp44
 70
     1
102
RTVSPost2010Prop45
280
     0
102
RTVSPost2010PropOp45
 70
     1
102
RTVSPost2010Prop46
 90
       50
102
RTVSPost2010PropOp46
 70
     1
102
RTVSPost2010Prop47
 90
       50
102
RTVSPost2010PropOp47
 70
     1
102
RTVSPost2010Prop48
 90
       50
102
RTVSPost2010PropOp48
 70
     1
102
RTVSPost2010Prop49
280
     0
102
RTVSPost2010PropOp49
 70
     1
102
RTVSPost2010Prop50
 90
       50
102
RTVSPost2010PropOp50
 70
     1
102
RTVSPost2010Prop51ColorIndex
 90
      256
102
RTVSPost2010Prop51ColorRGB
 90
-16777216
102
RTVSPost2010PropOp51
 70
     0
102
RTVSPost2010Prop52
140
1.0
102
RTVSPost2010PropOp52
 70
     0
102
RTVSPost2010Prop53
 90
        2
102
RTVSPost2010PropOp53
 70
     1
102
RTVSPost2010Prop54
  1
strokes_ogs.tif
102
RTVSPost2010PropOp54
 70
     1
102
RTVSPost2010Prop55
280
     0
102
RTVSPost2010PropOp55
 70
     1
102
RTVSPost2010Prop56
140
1.0
102
RTVSPost2010PropOp56
 70
     1
102
RTVSPost2010Prop57
140
1.0
102
RTVSPost2010PropOp57
 70
     1
102
RTVSPropertyOp0
 70
     1
102
RTVSPropertyOp1
 70
     1
102
RTVSPropertyOp2
 70
     1
102
RTVSPropertyOp3
 70
     1
102
RTVSPropertyOp4
 70
     1
102
RTVSPropertyOp5
 70
     1
102
RTVSPropertyOp6
 70
     1
102
RTVSPropertyOp7
 70
     1
102
RTVSPropertyOp8
 70
     1
102
RTVSPropertyOp9
 70
     1
102
RTVSPropertyOp10
 70
     1
102
RTVSPropertyOp11
 70
     1
102
RTVSPropertyOp12
 70
     1
102
RTVSPropertyOp13
 70
     1
102
RTVSPropertyOp14
 70
     1
102
RTVSPropertyOp15
 70
     1
102
RTVSPropertyOp16
 70
     1
102
RTVSPropertyOp17
 70
     1
102
RTVSPropertyOp18
 70
     1
102
RTVSPropertyOp19
 70
     1
102
RTVSPropertyOp20
 70
     1
102
RTVSPropertyOp21
 70
     1
102
RTVSPropertyOp22
 70
     1
102
RTVSPropertyOp23
 70
     1
102
RTVSPropertyOp24
 70
     1
102
RTVSPropertyOp25
 70
     1
102
RTVSPropertyOp26
 70
     1
102
RTVSPropertyOp27
 70
     1
102
RTVSPropertyOp28
 70
     1
102
RTVSPropertyOp29
 70
     1
102
RTVSPropertyOp30
 70
     1
102
RTVSPropertyOp31
 70
     1
102
RTVSPropertyOp32
 70
     1
102
RTVSPropertyOp33
 70
     1
102
RTVSPropertyOp34
 70
     1
102
RTVSPropertyOp35
 70
     1
102
RTVSPropertyOp36
 70
     1
102
RTVSPropertyOp37
 70
     1
102
RTVSPropertyOp38
 70
     1
102
RTVSPropertyOp39
 70
     1
102
RTVSPropertyOp40
 70
     1
102
RTVSPropertyOp41
 70
     1
102
RTVSPropertyOp42
 70
     1
102
RTVSPropertyOp43
 70
     1
102
RTVSPropertyOp44
 70
     1
102
RTVSPropertyOp45
 70
     1
102
RTVSPropertyOp46
 70
     1
102
RTVSPropertyOp47
 70
     1
102
RTVSPropertyOp48
 70
     1
102
RTVSPropertyOp49
 70
     1
102
RTVSPropertyOp50
 70
     1
102
RTVSPropertyOp51
 70
     0
102
RTVSPropertyOp52
 70
     0
102
RTVSPropertyOp53
 70
     1
102
RTVSPropertyOp54
 70
     1
102
RTVSPropertyOp55
 70
     1
102
RTVSPropertyOp56
 70
     1
102
RTVSPropertyOp57
 70
     1
102
RTVSPropertyOp58
 70
     1
102
RTVSPropertyOp59
 70
     1
102
RTVSPropertyOp60
 70
     1
102
RTVSPropertyOp61
 70
     1
102
RTVSPropertyOp62
 70
     1
  0
XRECORD
  5
34E
102
{ACAD_REACTORS
330
34D
102
}
330
34D
100
AcDbXrecord
280
     1
102
RTVSPost2010Prop28
280
     0
102
RTVSPost2010PropOp28
 70
     1
102
RTVSPost2010Prop29
280
     1
102
RTVSPost2010PropOp29
 70
     1
102
RTVSPost2010Prop30
280
     1
102
RTVSPost2010PropOp30
 70
     1
102
RTVSPost2010Prop31
280
     0
102
RTVSPost2010PropOp31
 70
     1
102
RTVSPost2010Prop32
280
     0
102
RTVSPost2010PropOp32
 70
     1
102
RTVSPost2010Prop33
280
     0
102
RTVSPost2010PropOp33
 70
     1
102
RTVSPost2010Prop34
280
     0
102
RTVSPost2010PropOp34
 70
     1
102
RTVSPost2010Prop35
280
     0
102
RTVSPost2010PropOp35
 70
     1
102
RTVSPost2010Prop36
280
     0
102
RTVSPost2010PropOp36
 70
     1
102
RTVSPost2010Prop37
 90
       50
102
RTVSPost2010PropOp37
 70
     1
102
RTVSPost2010Prop38
140
0.0
102
RTVSPost2010PropOp38
 70
     1
102
RTVSPost2010Prop39
140
1.0
102
RTVSPost2010PropOp39
 70
     1
102
RTVSPost2010Prop40
 90
        0
102
RTVSPost2010PropOp40
 70
     1
102
RTVSPost2010Prop41ColorIndex
 90
       18
102
RTVSPost2010Prop41ColorRGB
 90
        0
102
RTVSPost2010PropOp41
 70
     1
102
RTVSPost2010Prop42
 90
       50
102
RTVSPost2010PropOp42
 70
     1
102
RTVSPost2010Prop43
 90
        3
102
RTVSPost2010PropOp43
 70
     1
102
RTVSPost2010Prop44ColorIndex
 90
        5
102
RTVSPost2010Prop44ColorRGB
 90
      255
102
RTVSPost2010PropOp44
 70
     1
102
RTVSPost2010Prop45
280
     0
102
RTVSPost2010PropOp45
 70
     1
102
RTVSPost2010Prop46
 90
       50
102
RTVSPost2010PropOp46
 70
     1
102
RTVSPost2010Prop47
 90
       50
102
RTVSPost2010PropOp47
 70
     1
102
RTVSPost2010Prop48
 90
       50
102
RTVSPost2010PropOp48
 70
     1
102
RTVSPost2010Prop49
280
     0
102
RTVSPost2010PropOp49
 70
     1
102
RTVSPost2010Prop50
 90
       50
102
RTVSPost2010PropOp50
 70
     1
102
RTVSPost2010Prop51ColorIndex
 90
      256
102
RTVSPost2010Prop51ColorRGB
 90
-16777216
102
RTVSPost2010PropOp51
 70
     0
102
RTVSPost2010Prop52
140
1.0
102
RTVSPost2010PropOp52
 70
     0
102
RTVSPost2010Prop53
 90
        2
102
RTVSPost2010PropOp53
 70
     1
102
RTVSPost2010Prop54
  1
strokes_ogs.tif
102
RTVSPost2010PropOp54
 70
     1
102
RTVSPost2010Prop55
280
     0
102
RTVSPost2010PropOp55
 70
     1
102
RTVSPost2010Prop56
140
1.0
102
RTVSPost2010PropOp56
 70
     1
102
RTVSPost2010Prop57
140
1.0
102
RTVSPost2010PropOp57
 70
     1
102
RTVSPropertyOp0
 70
     1
102
RTVSPropertyOp1
 70
     1
102
RTVSPropertyOp2
 70
     1
102
RTVSPropertyOp3
 70
     1
102
RTVSPropertyOp4
 70
     1
102
RTVSPropertyOp5
 70
     1
102
RTVSPropertyOp6
 70
     1
102
RTVSPropertyOp7
 70
     1
102
RTVSPropertyOp8
 70
     1
102
RTVSPropertyOp9
 70
     1
102
RTVSPropertyOp10
 70
     1
102
RTVSPropertyOp11
 70
     1
102
RTVSPropertyOp12
 70
     1
102
RTVSPropertyOp13
 70
     1
102
RTVSPropertyOp14
 70
     1
102
RTVSPropertyOp15
 70
     1
102
RTVSPropertyOp16
 70
     1
102
RTVSPropertyOp17
 70
     1
102
RTVSPropertyOp18
 70
     1
102
RTVSPropertyOp19
 70
     1
102
RTVSPropertyOp20
 70
     1
102
RTVSPropertyOp21
 70
     1
102
RTVSPropertyOp22
 70
     1
102
RTVSPropertyOp23
 70
     1
102
RTVSPropertyOp24
 70
     1
102
RTVSPropertyOp25
 70
     1
102
RTVSPropertyOp26
 70
     1
102
RTVSPropertyOp27
 70
     1
102
RTVSPropertyOp28
 70
     1
102
RTVSPropertyOp29
 70
     1
102
RTVSPropertyOp30
 70
     1
102
RTVSPropertyOp31
 70
     1
102
RTVSPropertyOp32
 70
     1
102
RTVSPropertyOp33
 70
     1
102
RTVSPropertyOp34
 70
     1
102
RTVSPropertyOp35
 70
     1
102
RTVSPropertyOp36
 70
     1
102
RTVSPropertyOp37
 70
     1
102
RTVSPropertyOp38
 70
     1
102
RTVSPropertyOp39
 70
     1
102
RTVSPropertyOp40
 70
     1
102
RTVSPropertyOp41
 70
     1
102
RTVSPropertyOp42
 70
     1
102
RTVSPropertyOp43
 70
     1
102
RTVSPropertyOp44
 70
     1
102
RTVSPropertyOp45
 70
     1
102
RTVSPropertyOp46
 70
     1
102
RTVSPropertyOp47
 70
     1
102
RTVSPropertyOp48
 70
     1
102
RTVSPropertyOp49
 70
     1
102
RTVSPropertyOp50
 70
     1
102
RTVSPropertyOp51
 70
     0
102
RTVSPropertyOp52
 70
     0
102
RTVSPropertyOp53
 70
     1
102
RTVSPropertyOp54
 70
     1
102
RTVSPropertyOp55
 70
     1
102
RTVSPropertyOp56
 70
     1
102
RTVSPropertyOp57
 70
     1
102
RTVSPropertyOp58
 70
     1
102
RTVSPropertyOp59
 70
     1
102
RTVSPropertyOp60
 70
     1
102
RTVSPropertyOp61
 70
     1
102
RTVSPropertyOp62
 70
     1
  0
XRECORD
  5
33E
102
{ACAD_REACTORS
330
33D
102
}
330
33D
100
AcDbXrecord
280
     1
102
RTVSPost2010Prop28
280
     0
102
RTVSPost2010PropOp28
 70
     1
102
RTVSPost2010Prop29
280
     1
102
RTVSPost2010PropOp29
 70
     1
102
RTVSPost2010Prop30
280
     1
102
RTVSPost2010PropOp30
 70
     1
102
RTVSPost2010Prop31
280
     0
102
RTVSPost2010PropOp31
 70
     1
102
RTVSPost2010Prop32
280
     0
102
RTVSPost2010PropOp32
 70
     1
102
RTVSPost2010Prop33
280
     0
102
RTVSPost2010PropOp33
 70
     1
102
RTVSPost2010Prop34
280
     0
102
RTVSPost2010PropOp34
 70
     1
102
RTVSPost2010Prop35
280
     0
102
RTVSPost2010PropOp35
 70
     1
102
RTVSPost2010Prop36
280
     0
102
RTVSPost2010PropOp36
 70
     1
102
RTVSPost2010Prop37
 90
       50
102
RTVSPost2010PropOp37
 70
     1
102
RTVSPost2010Prop38
140
0.0
102
RTVSPost2010PropOp38
 70
     1
102
RTVSPost2010Prop39
140
1.0
102
RTVSPost2010PropOp39
 70
     1
102
RTVSPost2010Prop40
 90
        0
102
RTVSPost2010PropOp40
 70
     1
102
RTVSPost2010Prop41ColorIndex
 90
       18
102
RTVSPost2010Prop41ColorRGB
 90
        0
102
RTVSPost2010PropOp41
 70
     1
102
RTVSPost2010Prop42
 90
       50
102
RTVSPost2010PropOp42
 70
     1
102
RTVSPost2010Prop43
 90
        3
102
RTVSPost2010PropOp43
 70
     1
102
RTVSPost2010Prop44ColorIndex
 90
        5
102
RTVSPost2010Prop44ColorRGB
 90
      255
102
RTVSPost2010PropOp44
 70
     1
102
RTVSPost2010Prop45
280
     0
102
RTVSPost2010PropOp45
 70
     1
102
RTVSPost2010Prop46
 90
       50
102
RTVSPost2010PropOp46
 70
     1
102
RTVSPost2010Prop47
 90
       50
102
RTVSPost2010PropOp47
 70
     1
102
RTVSPost2010Prop48
 90
       50
102
RTVSPost2010PropOp48
 70
     1
102
RTVSPost2010Prop49
280
     0
102
RTVSPost2010PropOp49
 70
     1
102
RTVSPost2010Prop50
 90
       50
102
RTVSPost2010PropOp50
 70
     1
102
RTVSPost2010Prop51ColorIndex
 90
      256
102
RTVSPost2010Prop51ColorRGB
 90
-16777216
102
RTVSPost2010PropOp51
 70
     0
102
RTVSPost2010Prop52
140
1.0
102
RTVSPost2010PropOp52
 70
     0
102
RTVSPost2010Prop53
 90
        2
102
RTVSPost2010PropOp53
 70
     1
102
RTVSPost2010Prop54
  1
strokes_ogs.tif
102
RTVSPost2010PropOp54
 70
     1
102
RTVSPost2010Prop55
280
     0
102
RTVSPost2010PropOp55
 70
     1
102
RTVSPost2010Prop56
140
1.0
102
RTVSPost2010PropOp56
 70
     1
102
RTVSPost2010Prop57
140
1.0
102
RTVSPost2010PropOp57
 70
     1
102
RTVSPropertyOp0
 70
     1
102
RTVSPropertyOp1
 70
     1
102
RTVSPropertyOp2
 70
     1
102
RTVSPropertyOp3
 70
     1
102
RTVSPropertyOp4
 70
     1
102
RTVSPropertyOp5
 70
     1
102
RTVSPropertyOp6
 70
     1
102
RTVSPropertyOp7
 70
     1
102
RTVSPropertyOp8
 70
     1
102
RTVSPropertyOp9
 70
     1
102
RTVSPropertyOp10
 70
     1
102
RTVSPropertyOp11
 70
     1
102
RTVSPropertyOp12
 70
     1
102
RTVSPropertyOp13
 70
     1
102
RTVSPropertyOp14
 70
     1
102
RTVSPropertyOp15
 70
     1
102
RTVSPropertyOp16
 70
     1
102
RTVSPropertyOp17
 70
     1
102
RTVSPropertyOp18
 70
     1
102
RTVSPropertyOp19
 70
     1
102
RTVSPropertyOp20
 70
     1
102
RTVSPropertyOp21
 70
     1
102
RTVSPropertyOp22
 70
     1
102
RTVSPropertyOp23
 70
     1
102
RTVSPropertyOp24
 70
     1
102
RTVSPropertyOp25
 70
     1
102
RTVSPropertyOp26
 70
     1
102
RTVSPropertyOp27
 70
     1
102
RTVSPropertyOp28
 70
     1
102
RTVSPropertyOp29
 70
     1
102
RTVSPropertyOp30
 70
     1
102
RTVSPropertyOp31
 70
     1
102
RTVSPropertyOp32
 70
     1
102
RTVSPropertyOp33
 70
     1
102
RTVSPropertyOp34
 70
     1
102
RTVSPropertyOp35
 70
     1
102
RTVSPropertyOp36
 70
     1
102
RTVSPropertyOp37
 70
     1
102
RTVSPropertyOp38
 70
     1
102
RTVSPropertyOp39
 70
     1
102
RTVSPropertyOp40
 70
     1
102
RTVSPropertyOp41
 70
     1
102
RTVSPropertyOp42
 70
     1
102
RTVSPropertyOp43
 70
     1
102
RTVSPropertyOp44
 70
     1
102
RTVSPropertyOp45
 70
     1
102
RTVSPropertyOp46
 70
     1
102
RTVSPropertyOp47
 70
     1
102
RTVSPropertyOp48
 70
     1
102
RTVSPropertyOp49
 70
     1
102
RTVSPropertyOp50
 70
     1
102
RTVSPropertyOp51
 70
     0
102
RTVSPropertyOp52
 70
     0
102
RTVSPropertyOp53
 70
     1
102
RTVSPropertyOp54
 70
     1
102
RTVSPropertyOp55
 70
     1
102
RTVSPropertyOp56
 70
     1
102
RTVSPropertyOp57
 70
     1
102
RTVSPropertyOp58
 70
     1
102
RTVSPropertyOp59
 70
     1
102
RTVSPropertyOp60
 70
     1
102
RTVSPropertyOp61
 70
     1
102
RTVSPropertyOp62
 70
     1
  0
XRECORD
  5
332
102
{ACAD_REACTORS
330
331
102
}
330
331
100
AcDbXrecord
280
     1
102
RTVSPost2010Prop28
280
     0
102
RTVSPost2010PropOp28
 70
     1
102
RTVSPost2010Prop29
280
     1
102
RTVSPost2010PropOp29
 70
     1
102
RTVSPost2010Prop30
280
     1
102
RTVSPost2010PropOp30
 70
     1
102
RTVSPost2010Prop31
280
     0
102
RTVSPost2010PropOp31
 70
     1
102
RTVSPost2010Prop32
280
     0
102
RTVSPost2010PropOp32
 70
     1
102
RTVSPost2010Prop33
280
     0
102
RTVSPost2010PropOp33
 70
     1
102
RTVSPost2010Prop34
280
     0
102
RTVSPost2010PropOp34
 70
     1
102
RTVSPost2010Prop35
280
     0
102
RTVSPost2010PropOp35
 70
     1
102
RTVSPost2010Prop36
280
     0
102
RTVSPost2010PropOp36
 70
     1
102
RTVSPost2010Prop37
 90
       50
102
RTVSPost2010PropOp37
 70
     1
102
RTVSPost2010Prop38
140
0.0
102
RTVSPost2010PropOp38
 70
     1
102
RTVSPost2010Prop39
140
1.0
102
RTVSPost2010PropOp39
 70
     1
102
RTVSPost2010Prop40
 90
        0
102
RTVSPost2010PropOp40
 70
     1
102
RTVSPost2010Prop41ColorIndex
 90
       18
102
RTVSPost2010Prop41ColorRGB
 90
        0
102
RTVSPost2010PropOp41
 70
     1
102
RTVSPost2010Prop42
 90
       50
102
RTVSPost2010PropOp42
 70
     1
102
RTVSPost2010Prop43
 90
        3
102
RTVSPost2010PropOp43
 70
     1
102
RTVSPost2010Prop44ColorIndex
 90
        5
102
RTVSPost2010Prop44ColorRGB
 90
      255
102
RTVSPost2010PropOp44
 70
     1
102
RTVSPost2010Prop45
280
     0
102
RTVSPost2010PropOp45
 70
     1
102
RTVSPost2010Prop46
 90
       50
102
RTVSPost2010PropOp46
 70
     1
102
RTVSPost2010Prop47
 90
       50
102
RTVSPost2010PropOp47
 70
     1
102
RTVSPost2010Prop48
 90
       50
102
RTVSPost2010PropOp48
 70
     1
102
RTVSPost2010Prop49
280
     0
102
RTVSPost2010PropOp49
 70
     1
102
RTVSPost2010Prop50
 90
       50
102
RTVSPost2010PropOp50
 70
     1
102
RTVSPost2010Prop51ColorIndex
 90
      256
102
RTVSPost2010Prop51ColorRGB
 90
-16777216
102
RTVSPost2010PropOp51
 70
     0
102
RTVSPost2010Prop52
140
1.0
102
RTVSPost2010PropOp52
 70
     0
102
RTVSPost2010Prop53
 90
        2
102
RTVSPost2010PropOp53
 70
     1
102
RTVSPost2010Prop54
  1
strokes_ogs.tif
102
RTVSPost2010PropOp54
 70
     1
102
RTVSPost2010Prop55
280
     0
102
RTVSPost2010PropOp55
 70
     1
102
RTVSPost2010Prop56
140
1.0
102
RTVSPost2010PropOp56
 70
     1
102
RTVSPost2010Prop57
140
1.0
102
RTVSPost2010PropOp57
 70
     1
102
RTVSPropertyOp0
 70
     1
102
RTVSPropertyOp1
 70
     1
102
RTVSPropertyOp2
 70
     1
102
RTVSPropertyOp3
 70
     1
102
RTVSPropertyOp4
 70
     1
102
RTVSPropertyOp5
 70
     1
102
RTVSPropertyOp6
 70
     1
102
RTVSPropertyOp7
 70
     1
102
RTVSPropertyOp8
 70
     1
102
RTVSPropertyOp9
 70
     1
102
RTVSPropertyOp10
 70
     1
102
RTVSPropertyOp11
 70
     1
102
RTVSPropertyOp12
 70
     1
102
RTVSPropertyOp13
 70
     1
102
RTVSPropertyOp14
 70
     1
102
RTVSPropertyOp15
 70
     1
102
RTVSPropertyOp16
 70
     1
102
RTVSPropertyOp17
 70
     1
102
RTVSPropertyOp18
 70
     1
102
RTVSPropertyOp19
 70
     1
102
RTVSPropertyOp20
 70
     1
102
RTVSPropertyOp21
 70
     1
102
RTVSPropertyOp22
 70
     1
102
RTVSPropertyOp23
 70
     1
102
RTVSPropertyOp24
 70
     1
102
RTVSPropertyOp25
 70
     1
102
RTVSPropertyOp26
 70
     1
102
RTVSPropertyOp27
 70
     1
102
RTVSPropertyOp28
 70
     1
102
RTVSPropertyOp29
 70
     1
102
RTVSPropertyOp30
 70
     1
102
RTVSPropertyOp31
 70
     1
102
RTVSPropertyOp32
 70
     1
102
RTVSPropertyOp33
 70
     1
102
RTVSPropertyOp34
 70
     1
102
RTVSPropertyOp35
 70
     1
102
RTVSPropertyOp36
 70
     1
102
RTVSPropertyOp37
 70
     1
102
RTVSPropertyOp38
 70
     1
102
RTVSPropertyOp39
 70
     1
102
RTVSPropertyOp40
 70
     1
102
RTVSPropertyOp41
 70
     1
102
RTVSPropertyOp42
 70
     1
102
RTVSPropertyOp43
 70
     1
102
RTVSPropertyOp44
 70
     1
102
RTVSPropertyOp45
 70
     1
102
RTVSPropertyOp46
 70
     1
102
RTVSPropertyOp47
 70
     1
102
RTVSPropertyOp48
 70
     1
102
RTVSPropertyOp49
 70
     1
102
RTVSPropertyOp50
 70
     1
102
RTVSPropertyOp51
 70
     0
102
RTVSPropertyOp52
 70
     0
102
RTVSPropertyOp53
 70
     1
102
RTVSPropertyOp54
 70
     1
102
RTVSPropertyOp55
 70
     1
102
RTVSPropertyOp56
 70
     1
102
RTVSPropertyOp57
 70
     1
102
RTVSPropertyOp58
 70
     1
102
RTVSPropertyOp59
 70
     1
102
RTVSPropertyOp60
 70
     1
102
RTVSPropertyOp61
 70
     1
102
RTVSPropertyOp62
 70
     1
  0
XRECORD
  5
350
102
{ACAD_REACTORS
330
34F
102
}
330
34F
100
AcDbXrecord
280
     1
102
RTVSPost2010Prop28
280
     0
102
RTVSPost2010PropOp28
 70
     1
102
RTVSPost2010Prop29
280
     1
102
RTVSPost2010PropOp29
 70
     1
102
RTVSPost2010Prop30
280
     1
102
RTVSPost2010PropOp30
 70
     1
102
RTVSPost2010Prop31
280
     0
102
RTVSPost2010PropOp31
 70
     1
102
RTVSPost2010Prop32
280
     0
102
RTVSPost2010PropOp32
 70
     1
102
RTVSPost2010Prop33
280
     0
102
RTVSPost2010PropOp33
 70
     1
102
RTVSPost2010Prop34
280
     0
102
RTVSPost2010PropOp34
 70
     1
102
RTVSPost2010Prop35
280
     0
102
RTVSPost2010PropOp35
 70
     1
102
RTVSPost2010Prop36
280
     0
102
RTVSPost2010PropOp36
 70
     1
102
RTVSPost2010Prop37
 90
       50
102
RTVSPost2010PropOp37
 70
     1
102
RTVSPost2010Prop38
140
0.0
102
RTVSPost2010PropOp38
 70
     1
102
RTVSPost2010Prop39
140
1.0
102
RTVSPost2010PropOp39
 70
     1
102
RTVSPost2010Prop40
 90
        0
102
RTVSPost2010PropOp40
 70
     1
102
RTVSPost2010Prop41ColorIndex
 90
       18
102
RTVSPost2010Prop41ColorRGB
 90
        0
102
RTVSPost2010PropOp41
 70
     1
102
RTVSPost2010Prop42
 90
       50
102
RTVSPost2010PropOp42
 70
     1
102
RTVSPost2010Prop43
 90
        3
102
RTVSPost2010PropOp43
 70
     1
102
RTVSPost2010Prop44ColorIndex
 90
        5
102
RTVSPost2010Prop44ColorRGB
 90
      255
102
RTVSPost2010PropOp44
 70
     1
102
RTVSPost2010Prop45
280
     0
102
RTVSPost2010PropOp45
 70
     1
102
RTVSPost2010Prop46
 90
       50
102
RTVSPost2010PropOp46
 70
     1
102
RTVSPost2010Prop47
 90
       50
102
RTVSPost2010PropOp47
 70
     1
102
RTVSPost2010Prop48
 90
       50
102
RTVSPost2010PropOp48
 70
     1
102
RTVSPost2010Prop49
280
     0
102
RTVSPost2010PropOp49
 70
     1
102
RTVSPost2010Prop50
 90
       50
102
RTVSPost2010PropOp50
 70
     1
102
RTVSPost2010Prop51ColorIndex
 90
      256
102
RTVSPost2010Prop51ColorRGB
 90
-16777216
102
RTVSPost2010PropOp51
 70
     0
102
RTVSPost2010Prop52
140
1.0
102
RTVSPost2010PropOp52
 70
     0
102
RTVSPost2010Prop53
 90
        2
102
RTVSPost2010PropOp53
 70
     1
102
RTVSPost2010Prop54
  1
strokes_ogs.tif
102
RTVSPost2010PropOp54
 70
     1
102
RTVSPost2010Prop55
280
     0
102
RTVSPost2010PropOp55
 70
     1
102
RTVSPost2010Prop56
140
1.0
102
RTVSPost2010PropOp56
 70
     1
102
RTVSPost2010Prop57
140
1.0
102
RTVSPost2010PropOp57
 70
     1
102
RTVSPropertyOp0
 70
     1
102
RTVSPropertyOp1
 70
     1
102
RTVSPropertyOp2
 70
     1
102
RTVSPropertyOp3
 70
     1
102
RTVSPropertyOp4
 70
     1
102
RTVSPropertyOp5
 70
     1
102
RTVSPropertyOp6
 70
     1
102
RTVSPropertyOp7
 70
     1
102
RTVSPropertyOp8
 70
     1
102
RTVSPropertyOp9
 70
     1
102
RTVSPropertyOp10
 70
     1
102
RTVSPropertyOp11
 70
     1
102
RTVSPropertyOp12
 70
     1
102
RTVSPropertyOp13
 70
     1
102
RTVSPropertyOp14
 70
     1
102
RTVSPropertyOp15
 70
     1
102
RTVSPropertyOp16
 70
     1
102
RTVSPropertyOp17
 70
     1
102
RTVSPropertyOp18
 70
     1
102
RTVSPropertyOp19
 70
     1
102
RTVSPropertyOp20
 70
     1
102
RTVSPropertyOp21
 70
     1
102
RTVSPropertyOp22
 70
     1
102
RTVSPropertyOp23
 70
     1
102
RTVSPropertyOp24
 70
     1
102
RTVSPropertyOp25
 70
     1
102
RTVSPropertyOp26
 70
     1
102
RTVSPropertyOp27
 70
     1
102
RTVSPropertyOp28
 70
     1
102
RTVSPropertyOp29
 70
     1
102
RTVSPropertyOp30
 70
     1
102
RTVSPropertyOp31
 70
     1
102
RTVSPropertyOp32
 70
     1
102
RTVSPropertyOp33
 70
     1
102
RTVSPropertyOp34
 70
     1
102
RTVSPropertyOp35
 70
     1
102
RTVSPropertyOp36
 70
     1
102
RTVSPropertyOp37
 70
     1
102
RTVSPropertyOp38
 70
     1
102
RTVSPropertyOp39
 70
     1
102
RTVSPropertyOp40
 70
     1
102
RTVSPropertyOp41
 70
     1
102
RTVSPropertyOp42
 70
     1
102
RTVSPropertyOp43
 70
     1
102
RTVSPropertyOp44
 70
     1
102
RTVSPropertyOp45
 70
     1
102
RTVSPropertyOp46
 70
     1
102
RTVSPropertyOp47
 70
     1
102
RTVSPropertyOp48
 70
     1
102
RTVSPropertyOp49
 70
     1
102
RTVSPropertyOp50
 70
     1
102
RTVSPropertyOp51
 70
     0
102
RTVSPropertyOp52
 70
     0
102
RTVSPropertyOp53
 70
     1
102
RTVSPropertyOp54
 70
     1
102
RTVSPropertyOp55
 70
     1
102
RTVSPropertyOp56
 70
     1
102
RTVSPropertyOp57
 70
     1
102
RTVSPropertyOp58
 70
     1
102
RTVSPropertyOp59
 70
     1
102
RTVSPropertyOp60
 70
     1
102
RTVSPropertyOp61
 70
     1
102
RTVSPropertyOp62
 70
     1
  0
ENDSEC
  0
EOF
