  0
SECTION
  2
HEADER
  9
$ACADVER
  1
AC1015
  9
$ACADMAINTVER
 70
    20
  9
$DWGCODEPAGE
  3
ANSI_1254
  9
$INSBASE
 10
0.0
 20
0.0
 30
0.0
  9
$EXTMIN
 10
13.62659811843703
 20
19.2158189503788
 30
0.0
  9
$EXTMAX
 10
92.89976910899639
 20
106.0689981833386
 30
0.0
  9
$LIMMIN
 10
0.0
 20
0.0
  9
$LIMMAX
 10
12.0
 20
9.0
  9
$ORTHOMODE
 70
     1
  9
$REGENMODE
 70
     1
  9
$FILLMODE
 70
     1
  9
$QTEXTMODE
 70
     0
  9
$MIRRTEXT
 70
     0
  9
$LTSCALE
 40
1.0
  9
$ATTMODE
 70
     1
  9
$TEXTSIZE
 40
2.5
  9
$TRACEWID
 40
0.05
  9
$TEXTSTYLE
  7
STANDARD
  9
$CLAYER
  8
0
  9
$CELTYPE
  6
CONTINUOUS
  9
$CECOLOR
 62
     3
  9
$CELTSCALE
 40
1.0
  9
$DISPSILH
 70
     0
  9
$DIMSCALE
 40
1.0
  9
$DIMASZ
 40
0.18
  9
$DIMEXO
 40
0.0625
  9
$DIMDLI
 40
0.38
  9
$DIMRND
 40
0.0
  9
$DIMDLE
 40
0.0
  9
$DIMEXE
 40
0.18
  9
$DIMTP
 40
0.0
  9
$DIMTM
 40
0.0
  9
$DIMTXT
 40
0.18
  9
$DIMCEN
 40
0.09
  9
$DIMTSZ
 40
0.0
  9
$DIMTOL
 70
     0
  9
$DIMLIM
 70
     0
  9
$DIMTIH
 70
     1
  9
$DIMTOH
 70
     1
  9
$DIMSE1
 70
     0
  9
$DIMSE2
 70
     0
  9
$DIMTAD
 70
     0
  9
$DIMZIN
 70
     0
  9
$DIMBLK
  1

  9
$DIMASO
 70
     1
  9
$DIMSHO
 70
     1
  9
$DIMPOST
  1

  9
$DIMAPOST
  1

  9
$DIMALT
 70
     0
  9
$DIMALTD
 70
     2
  9
$DIMALTF
 40
25.4
  9
$DIMLFAC
 40
1.0
  9
$DIMTOFL
 70
     0
  9
$DIMTVP
 40
0.0
  9
$DIMTIX
 70
     0
  9
$DIMSOXD
 70
     0
  9
$DIMSAH
 70
     0
  9
$DIMBLK1
  1

  9
$DIMBLK2
  1

  9
$DIMSTYLE
  2
ISO-25
  9
$DIMCLRD
 70
     0
  9
$DIMCLRE
 70
     0
  9
$DIMCLRT
 70
     0
  9
$DIMTFAC
 40
1.0
  9
$DIMGAP
 40
0.09
  9
$DIMJUST
 70
     0
  9
$DIMSD1
 70
     0
  9
$DIMSD2
 70
     0
  9
$DIMTOLJ
 70
     1
  9
$DIMTZIN
 70
     0
  9
$DIMALTZ
 70
     0
  9
$DIMALTTZ
 70
     0
  9
$DIMUPT
 70
     0
  9
$DIMDEC
 70
     4
  9
$DIMTDEC
 70
     4
  9
$DIMALTU
 70
     2
  9
$DIMALTTD
 70
     2
  9
$DIMTXSTY
  7
STANDARD
  9
$DIMAUNIT
 70
     0
  9
$DIMADEC
 70
     0
  9
$DIMALTRND
 40
0.0
  9
$DIMAZIN
 70
     0
  9
$DIMDSEP
 70
    46
  9
$DIMATFIT
 70
     3
  9
$DIMFRAC
 70
     0
  9
$DIMLDRBLK
  1

  9
$DIMLUNIT
 70
     2
  9
$DIMLWD
 70
    -2
  9
$DIMLWE
 70
    -2
  9
$DIMTMOVE
 70
     0
  9
$LUNITS
 70
     2
  9
$LUPREC
 70
     4
  9
$SKETCHINC
 40
0.1
  9
$FILLETRAD
 40
0.5
  9
$AUNITS
 70
     0
  9
$AUPREC
 70
     0
  9
$MENU
  1
.
  9
$ELEVATION
 40
0.0
  9
$PELEVATION
 40
0.0
  9
$THICKNESS
 40
0.0
  9
$LIMCHECK
 70
     0
  9
$CHAMFERA
 40
0.0
  9
$CHAMFERB
 40
0.0
  9
$CHAMFERC
 40
0.0
  9
$CHAMFERD
 40
0.0
  9
$SKPOLY
 70
     0
  9
$TDCREATE
 40
2459754.991921296
  9
$TDUCREATE
 40
2459754.866921296
  9
$TDUPDATE
 40
2460486.663518519
  9
$TDUUPDATE
 40
2460486.538518519
  9
$TDINDWG
 40
731.6715972222
  9
$TDUSRTIMER
 40
731.6715972222
  9
$USRTIMER
 70
     1
  9
$ANGBASE
 50
0.0
  9
$ANGDIR
 70
     0
  9
$PDMODE
 70
    35
  9
$PDSIZE
 40
0.0
  9
$PLINEWID
 40
0.0
  9
$SPLFRAME
 70
     0
  9
$SPLINETYPE
 70
     6
  9
$SPLINESEGS
 70
     8
  9
$HANDSEED
  5
10A98
  9
$SURFTAB1
 70
     6
  9
$SURFTAB2
 70
     6
  9
$SURFTYPE
 70
     6
  9
$SURFU
 70
     6
  9
$SURFV
 70
     6
  9
$UCSBASE
  2

  9
$UCSNAME
  2

  9
$UCSORG
 10
0.0
 20
0.0
 30
0.0
  9
$UCSXDIR
 10
1.0
 20
0.0
 30
0.0
  9
$UCSYDIR
 10
0.0
 20
1.0
 30
0.0
  9
$UCSORTHOREF
  2

  9
$UCSORTHOVIEW
 70
     0
  9
$UCSORGTOP
 10
0.0
 20
0.0
 30
0.0
  9
$UCSORGBOTTOM
 10
0.0
 20
0.0
 30
0.0
  9
$UCSORGLEFT
 10
0.0
 20
0.0
 30
0.0
  9
$UCSORGRIGHT
 10
0.0
 20
0.0
 30
0.0
  9
$UCSORGFRONT
 10
0.0
 20
0.0
 30
0.0
  9
$UCSORGBACK
 10
0.0
 20
0.0
 30
0.0
  9
$PUCSBASE
  2

  9
$PUCSNAME
  2

  9
$PUCSORG
 10
0.0
 20
0.0
 30
0.0
  9
$PUCSXDIR
 10
1.0
 20
0.0
 30
0.0
  9
$PUCSYDIR
 10
0.0
 20
1.0
 30
0.0
  9
$PUCSORTHOREF
  2

  9
$PUCSORTHOVIEW
 70
     0
  9
$PUCSORGTOP
 10
0.0
 20
0.0
 30
0.0
  9
$PUCSORGBOTTOM
 10
0.0
 20
0.0
 30
0.0
  9
$PUCSORGLEFT
 10
0.0
 20
0.0
 30
0.0
  9
$PUCSORGRIGHT
 10
0.0
 20
0.0
 30
0.0
  9
$PUCSORGFRONT
 10
0.0
 20
0.0
 30
0.0
  9
$PUCSORGBACK
 10
0.0
 20
0.0
 30
0.0
  9
$USERI1
 70
     0
  9
$USERI2
 70
     0
  9
$USERI3
 70
     0
  9
$USERI4
 70
     0
  9
$USERI5
 70
     0
  9
$USERR1
 40
0.0
  9
$USERR2
 40
0.0
  9
$USERR3
 40
0.0
  9
$USERR4
 40
0.0
  9
$USERR5
 40
0.0
  9
$WORLDVIEW
 70
     1
  9
$SHADEDGE
 70
     3
  9
$SHADEDIF
 70
    70
  9
$TILEMODE
 70
     1
  9
$MAXACTVP
 70
    64
  9
$PINSBASE
 10
0.0
 20
0.0
 30
0.0
  9
$PLIMCHECK
 70
     0
  9
$PEXTMIN
 10
1.000000000000000E+20
 20
1.000000000000000E+20
 30
1.000000000000000E+20
  9
$PEXTMAX
 10
-1.000000000000000E+20
 20
-1.000000000000000E+20
 30
-1.000000000000000E+20
  9
$PLIMMIN
 10
0.0
 20
0.0
  9
$PLIMMAX
 10
12.0
 20
9.0
  9
$UNITMODE
 70
     0
  9
$VISRETAIN
 70
     1
  9
$PLINEGEN
 70
     0
  9
$PSLTSCALE
 70
     1
  9
$TREEDEPTH
 70
  3020
  9
$CMLSTYLE
  2

  9
$CMLJUST
 70
     0
  9
$CMLSCALE
 40
1.0
  9
$PROXYGRAPHICS
 70
     1
  9
$MEASUREMENT
 70
     1
  9
$CELWEIGHT
370
    -1
  9
$ENDCAPS
280
     0
  9
$JOINSTYLE
280
     0
  9
$LWDISPLAY
290
     0
  9
$INSUNITS
 70
     0
  9
$HYPERLINKBASE
  1

  9
$STYLESHEET
  1

  9
$XEDIT
290
     1
  9
$CEPSNTYPE
380
     0
  9
$PSTYLEMODE
290
     1
  9
$FINGERPRINTGUID
  2
{49E8B6D0-135E-0549-84D8-BE849706700D}
  9
$VERSIONGUID
  2
{19B66350-69E9-3A4E-A480-E996FCD0F7E0}
  9
$EXTNAMES
290
     1
  9
$PSVPSCALE
 40
0.0
  9
$OLESTARTUP
290
     0
  0
ENDSEC
  0
SECTION
  2
CLASSES
  0
CLASS
  1
ACDBDICTIONARYWDFLT
  2
AcDbDictionaryWithDefault
  3
ObjectDBX Classes
 90
        0
280
     0
281
     0
  0
CLASS
  1
MATERIAL
  2
AcDbMaterial
  3
ObjectDBX Classes
 90
     1153
280
     0
281
     0
  0
CLASS
  1
VISUALSTYLE
  2
AcDbVisualStyle
  3
ObjectDBX Classes
 90
     4095
280
     0
281
     0
  0
CLASS
  1
TABLESTYLE
  2
AcDbTableStyle
  3
ObjectDBX Classes
 90
     4095
280
     0
281
     0
  0
CLASS
  1
SCALE
  2
AcDbScale
  3
ObjectDBX Classes
 90
     1153
280
     0
281
     0
  0
CLASS
  1
MLEADERSTYLE
  2
AcDbMLeaderStyle
  3
ACDB_MLEADERSTYLE_CLASS
 90
     4095
280
     0
281
     0
  0
CLASS
  1
ACDBSECTIONVIEWSTYLE
  2
AcDbSectionViewStyle
  3
ObjectDBX Classes
 90
     1025
280
     0
281
     0
  0
CLASS
  1
ACDBDETAILVIEWSTYLE
  2
AcDbDetailViewStyle
  3
ObjectDBX Classes
 90
     1025
280
     0
281
     0
  0
CLASS
  1
DICTIONARYVAR
  2
AcDbDictionaryVar
  3
ObjectDBX Classes
 90
        0
280
     0
281
     0
  0
CLASS
  1
CELLSTYLEMAP
  2
AcDbCellStyleMap
  3
ObjectDBX Classes
 90
     1152
280
     0
281
     0
  0
CLASS
  1
SORTENTSTABLE
  2
AcDbSortentsTable
  3
ObjectDBX Classes
 90
        0
280
     0
281
     0
  0
CLASS
  1
SOLID_BACKGROUND
  2
AcDbSolidBackground
  3
SCENEOE
 90
     4095
280
     0
281
     0
  0
CLASS
  1
NPOCOLLECTION
  2
AcDbImpNonPersistentObjectsCollection
  3
ObjectDBX Classes
 90
     1153
280
     0
281
     0
  0
CLASS
  1
ACARRAYJIGENTITY
  2
AcArrayJigEntity
  3
ACAD_ARRAY
 90
      129
280
     0
281
     1
  0
CLASS
  1
ACDBASSOCNETWORK
  2
AcDbAssocNetwork
  3
ObjectDBX Classes
 90
     1025
280
     0
281
     0
  0
CLASS
  1
ACDBASSOCACTION
  2
AcDbAssocAction
  3
ObjectDBX Classes
 90
     1025
280
     0
281
     0
  0
CLASS
  1
ACDBASSOCARRAYACTIONBODY
  2
AcDbAssocArrayActionBody
  3
ObjectDBX Classes
 90
     1025
280
     0
281
     0
  0
CLASS
  1
ACDBASSOCVERTEXACTIONPARAM
  2
AcDbAssocVertexActionParam
  3
ObjectDBX Classes
 90
     1025
280
     0
281
     0
  0
CLASS
  1
ACDBASSOCDEPENDENCY
  2
AcDbAssocDependency
  3
ObjectDBX Classes
 90
     1025
280
     0
281
     0
  0
CLASS
  1
ACDBASSOCARRAYPOLARPARAMETERS
  2
AcDbAssocArrayPolarParameters
  3
ObjectDBX Classes
 90
    33793
280
     0
281
     0
  0
CLASS
  1
ACDBPLACEHOLDER
  2
AcDbPlaceHolder
  3
ObjectDBX Classes
 90
        0
280
     0
281
     0
  0
CLASS
  1
LAYOUT
  2
AcDbLayout
  3
ObjectDBX Classes
 90
        0
280
     0
281
     0
  0
ENDSEC
  0
SECTION
  2
TABLES
  0
TABLE
  2
VPORT
  5
8
330
0
100
AcDbSymbolTable
 70
     1
  0
VPORT
  5
2E
330
8
100
AcDbSymbolTableRecord
100
AcDbViewportTableRecord
  2
*ACTIVE
 70
     0
 10
0.0
 20
0.0
 11
1.0
 21
1.0
 12
0.0
 22
0.0
 13
0.0
 23
0.0
 14
10.0
 24
10.0
 15
10.0
 25
10.0
 16
-0.0000000000000782
 26
0.0
 36
366.1013618177113
 17
53.26315879821777
 27
62.62197399139404
 37
0.0
 40
117.5610695136091
 41
2.380421313506815
 42
50.0
 43
0.0
 44
0.0
 50
0.0
 51
0.0
 71
     0
 72
   100
 73
     1
 74
     3
 75
     0
 76
     0
 77
     0
 78
     0
281
     0
 65
     1
110
0.0
120
0.0
130
0.0
111
1.0
121
0.0
131
0.0
112
0.0
122
1.0
132
0.0
 79
     0
146
0.0
1001
ACAD_NAV_VCDISPLAY
1070
     3
  0
ENDTAB
  0
TABLE
  2
LTYPE
  5
5
330
0
100
AcDbSymbolTable
 70
     3
  0
LTYPE
  5
14
330
5
100
AcDbSymbolTableRecord
100
AcDbLinetypeTableRecord
  2
BYBLOCK
 70
     0
  3

 72
    65
 73
     0
 40
0.0
  0
LTYPE
  5
15
330
5
100
AcDbSymbolTableRecord
100
AcDbLinetypeTableRecord
  2
BYLAYER
 70
     0
  3

 72
    65
 73
     0
 40
0.0
  0
LTYPE
  5
16
330
5
100
AcDbSymbolTableRecord
100
AcDbLinetypeTableRecord
  2
CONTINUOUS
 70
     0
  3
Solid line
 72
    65
 73
     0
 40
0.0
  0
ENDTAB
  0
TABLE
  2
LAYER
  5
2
102
{ACAD_XDICTIONARY
360
100F1
102
}
330
0
100
AcDbSymbolTable
 70
     2
  0
LAYER
  5
50
102
{ACAD_XDICTIONARY
360
1009B
102
}
330
2
100
AcDbSymbolTableRecord
100
AcDbLayerTableRecord
  2
0
 70
     0
 62
     7
  6
CONTINUOUS
370
    -3
390
10002
  0
LAYER
  5
51
102
{ACAD_XDICTIONARY
360
1009D
102
}
330
2
100
AcDbSymbolTableRecord
100
AcDbLayerTableRecord
  2
templatesarea.com
 70
     0
 62
     7
  6
CONTINUOUS
370
    -3
390
10002
  0
ENDTAB
  0
TABLE
  2
STYLE
  5
3
330
0
100
AcDbSymbolTable
 70
     2
  0
STYLE
  5
11
330
3
100
AcDbSymbolTableRecord
100
AcDbTextStyleTableRecord
  2
STANDARD
 70
     0
 40
0.0
 41
1.0
 50
0.0
 71
     0
 42
2.5
  3
txt
  4

  0
STYLE
  5
1074F
330
3
100
AcDbSymbolTableRecord
100
AcDbTextStyleTableRecord
  2

 70
     1
 40
0.0
 41
1.0
 50
0.0
 71
     0
 42
2.5
  3
ltypeshp.shx
  4

  0
ENDTAB
  0
TABLE
  2
VIEW
  5
6
330
0
100
AcDbSymbolTable
 70
     0
  0
ENDTAB
  0
TABLE
  2
UCS
  5
7
330
0
100
AcDbSymbolTable
 70
     0
  0
ENDTAB
  0
TABLE
  2
APPID
  5
9
330
0
100
AcDbSymbolTable
 70
     9
  0
APPID
  5
12
330
9
100
AcDbSymbolTableRecord
100
AcDbRegAppTableRecord
  2
ACAD
 70
     0
  0
APPID
  5
100A9
330
9
100
AcDbSymbolTableRecord
100
AcDbRegAppTableRecord
  2
ACAD_NAV_VCDISPLAY
 70
     0
  0
APPID
  5
100EC
330
9
100
AcDbSymbolTableRecord
100
AcDbRegAppTableRecord
  2
ACAD_PSEXT
 70
     0
  0
APPID
  5
100ED
330
9
100
AcDbSymbolTableRecord
100
AcDbRegAppTableRecord
  2
AcadAnnotative
 70
     0
  0
APPID
  5
100EE
330
9
100
AcDbSymbolTableRecord
100
AcDbRegAppTableRecord
  2
ACAD_DSTYLE_DIMJAG
 70
     0
  0
APPID
  5
100EF
330
9
100
AcDbSymbolTableRecord
100
AcDbRegAppTableRecord
  2
ACAD_DSTYLE_DIMTALN
 70
     0
  0
APPID
  5
101BD
330
9
100
AcDbSymbolTableRecord
100
AcDbRegAppTableRecord
  2
ACAD_EXEMPT_FROM_CAD_STANDARDS
 70
     0
  0
APPID
  5
101C4
330
9
100
AcDbSymbolTableRecord
100
AcDbRegAppTableRecord
  2
Acad_TC
 70
     0
  0
APPID
  5
10A83
330
9
100
AcDbSymbolTableRecord
100
AcDbRegAppTableRecord
  2
ACAD_MLEADERVER
 70
     0
  0
ENDTAB
  0
TABLE
  2
DIMSTYLE
  5
A
330
0
100
AcDbSymbolTable
 70
     3
100
AcDbDimStyleTable
 71
     1
340
27
  0
DIMSTYLE
105
27
330
A
100
AcDbSymbolTableRecord
100
AcDbDimStyleTableRecord
  2
ISO-25
 70
     0
 41
2.5
 42
0.625
 43
3.75
 44
1.25
 73
     0
 74
     0
 77
     1
 78
     8
140
2.5
141
2.5
143
0.03937007874016
147
0.625
171
     3
172
     1
271
     2
272
     2
274
     3
283
     0
284
     8
340
11
  0
DIMSTYLE
105
100EB
330
A
100
AcDbSymbolTableRecord
100
AcDbDimStyleTableRecord
  2
Annotative
 70
     0
 40
0.0
 41
2.5
 42
0.625
 43
3.75
 44
1.25
 73
     0
 74
     0
 77
     1
 78
     8
140
2.5
141
2.5
143
0.03937007874016
147
0.625
171
     3
172
     1
271
     2
272
     2
274
     3
278
    44
283
     0
284
     8
340
11
1001
AcadAnnotative
1000
AnnotativeData
1002
{
1070
     1
1070
     1
1002
}
1001
ACAD_DSTYLE_DIMJAG
1070
   388
1040
1.5
1001
ACAD_DSTYLE_DIMTALN
1070
   392
1070
     0
  0
ENDTAB
  0
TABLE
  2
BLOCK_RECORD
  5
1
330
0
100
AcDbSymbolTable
 70
    12
  0
BLOCK_RECORD
  5
1F
102
{ACAD_XDICTIONARY
360
1024F
102
}
330
1
100
AcDbSymbolTableRecord
100
AcDbBlockTableRecord
  2
*MODEL_SPACE
340
10052
  0
BLOCK_RECORD
  5
1B
330
1
100
AcDbSymbolTableRecord
100
AcDbBlockTableRecord
  2
*PAPER_SPACE
340
10053
  0
BLOCK_RECORD
  5
10265
330
1
100
AcDbSymbolTableRecord
100
AcDbBlockTableRecord
  2
*U2
340
0
102
{BLKREFS
331
1027C
331
1027D
331
1027E
331
1027F
331
10280
331
10281
331
10282
102
}
  0
BLOCK_RECORD
  5
10268
102
{ACAD_XDICTIONARY
360
10A8C
102
}
330
1
100
AcDbSymbolTableRecord
100
AcDbBlockTableRecord
  2
*U3
340
0
  0
BLOCK_RECORD
  5
10285
330
1
100
AcDbSymbolTableRecord
100
AcDbBlockTableRecord
  2
*U4
340
0
102
{BLKREFS
331
1028E
331
1028F
331
10290
331
10291
331
10292
331
10293
331
10294
102
}
  0
BLOCK_RECORD
  5
1028C
102
{ACAD_XDICTIONARY
360
10A8F
102
}
330
1
100
AcDbSymbolTableRecord
100
AcDbBlockTableRecord
  2
*U6
340
0
  0
BLOCK_RECORD
  5
10333
330
1
100
AcDbSymbolTableRecord
100
AcDbBlockTableRecord
  2
*U7
340
0
102
{BLKREFS
331
10346
331
10347
331
10348
331
10349
331
1034A
331
1034B
331
1034C
102
}
  0
BLOCK_RECORD
  5
10336
102
{ACAD_XDICTIONARY
360
10A92
102
}
330
1
100
AcDbSymbolTableRecord
100
AcDbBlockTableRecord
  2
*U8
340
0
  0
BLOCK_RECORD
  5
10397
330
1
100
AcDbSymbolTableRecord
100
AcDbBlockTableRecord
  2
*U9
340
0
102
{BLKREFS
331
103A0
331
103A1
331
103A2
331
103A3
331
103A4
331
103A5
331
103A6
102
}
  0
BLOCK_RECORD
  5
1039E
102
{ACAD_XDICTIONARY
360
10A95
102
}
330
1
100
AcDbSymbolTableRecord
100
AcDbBlockTableRecord
  2
*U11
340
0
  0
ENDTAB
  0
ENDSEC
  0
SECTION
  2
BLOCKS
  0
BLOCK
  5
20
330
1F
100
AcDbEntity
  8
0
100
AcDbBlockBegin
  2
*MODEL_SPACE
 70
     0
 10
0.0
 20
0.0
 30
0.0
  3
*MODEL_SPACE
  1

  0
ENDBLK
  5
21
330
1F
100
AcDbEntity
  8
0
100
AcDbBlockEnd
  0
BLOCK
  5
1C
330
1B
100
AcDbEntity
 67
     1
  8
0
100
AcDbBlockBegin
  2
*PAPER_SPACE
 70
     0
 10
0.0
 20
0.0
 30
0.0
  3
*PAPER_SPACE
  1

  0
ENDBLK
  5
1D
330
1B
100
AcDbEntity
 67
     1
  8
0
100
AcDbBlockEnd
  0
BLOCK
  5
10266
330
10265
100
AcDbEntity
  8
0
 62
     3
100
AcDbBlockBegin
  2
*U2
 70
     1
 10
0.0
 20
0.0
 30
0.0
  3
*U2
  1

  0
ELLIPSE
  5
1026C
330
10265
100
AcDbEntity
  8
0
  6
Continuous
 62
     3
100
AcDbEllipse
 10
-0.0000691171203755
 20
0.000031838152978
 30
0.0
 11
-1.784646596734474
 21
-3.875381188334825
 31
0.0
210
0.0
220
0.0
230
1.0
 40
0.5888622646423513
 41
0.0
 42
6.283185307179586
  0
ELLIPSE
  5
1026D
330
10265
100
AcDbEntity
  8
0
  6
Continuous
 62
     3
100
AcDbEllipse
 10
0.0
 20
0.0
 30
0.0
 11
-2.130626905229021
 21
-4.626499592666164
 31
0.0
210
0.0
220
0.0
230
1.0
 40
0.6579027409493436
 41
0.0
 42
6.283185307179586
  0
ENDBLK
  5
10267
330
10265
100
AcDbEntity
  8
0
 62
     3
100
AcDbBlockEnd
  0
BLOCK
  5
10269
330
10268
100
AcDbEntity
  8
0
 62
     3
100
AcDbBlockBegin
  2
*U3
 70
     1
 10
0.0
 20
0.0
 30
0.0
  3
*U3
  1

  0
INSERT
  5
1027C
330
10268
100
AcDbEntity
  8
0
  6
ByBlock
 62
     0
370
    -2
380
     1
100
AcDbBlockReference
  2
*U2
 10
78.02791493561165
 20
154.0184009993552
 30
0.0
  0
INSERT
  5
1027D
330
10268
100
AcDbEntity
  8
0
  6
ByBlock
 62
     0
370
    -2
380
     1
100
AcDbBlockReference
  2
*U2
 10
74.32608114102814
 20
153.9546393799988
 30
0.0
 50
51.42857142857143
  0
INSERT
  5
1027E
330
10268
100
AcDbEntity
  8
0
  6
ByBlock
 62
     0
370
    -2
380
     1
100
AcDbBlockReference
  2
*U2
 10
72.06787636331533
 20
151.0206744571106
 30
0.0
 41
1.0
 42
1.0
 43
1.0
 50
102.8571428571428
  0
INSERT
  5
1027F
330
10268
100
AcDbEntity
  8
0
  6
ByBlock
 62
     0
370
    -2
380
     1
100
AcDbBlockReference
  2
*U2
 10
72.95377485907363
 20
147.4258416596029
 30
0.0
 41
1.0
 42
1.0
 43
1.0
 50
154.2857142857142
  0
INSERT
  5
10280
330
10268
100
AcDbEntity
  8
0
  6
ByBlock
 62
     0
370
    -2
380
     1
100
AcDbBlockReference
  2
*U2
 10
76.31667699196103
 20
145.8771234052245
 30
0.0
 41
1.0
 42
1.0
 43
1.0
 50
205.7142857142857
  0
INSERT
  5
10281
330
10268
100
AcDbEntity
  8
0
  6
ByBlock
 62
     0
370
    -2
380
     1
100
AcDbBlockReference
  2
*U2
 10
79.62424886521127
 20
147.5407361276174
 30
0.0
 41
1.0
 42
1.0
 43
1.0
 50
257.1428571428572
  0
INSERT
  5
10282
330
10268
100
AcDbEntity
  8
0
  6
ByBlock
 62
     0
370
    -2
380
     1
100
AcDbBlockReference
  2
*U2
 10
80.38582139609649
 20
151.1639455153045
 30
0.0
 41
1.0
 42
1.0
 43
1.0
 50
308.5714285714285
  0
ENDBLK
  5
1026A
330
10268
100
AcDbEntity
  8
0
 62
     3
100
AcDbBlockEnd
  0
BLOCK
  5
10286
330
10285
100
AcDbEntity
  8
0
 62
     3
100
AcDbBlockBegin
  2
*U4
 70
     1
 10
0.0
 20
0.0
 30
0.0
  3
*U4
  1

  0
ELLIPSE
  5
10287
330
10285
100
AcDbEntity
  8
0
  6
Continuous
 62
     3
100
AcDbEllipse
 10
-0.0000691171203755
 20
0.000031838152978
 30
0.0
 11
-1.784646596734474
 21
-3.875381188334825
 31
0.0
210
0.0
220
0.0
230
0.9999999999999998
 40
0.5888622646423513
 41
0.0
 42
6.283185307179586
  0
ELLIPSE
  5
10288
330
10285
100
AcDbEntity
  8
0
  6
Continuous
 62
     3
100
AcDbEllipse
 10
0.0
 20
0.0
 30
0.0
 11
-2.130626905229021
 21
-4.626499592666164
 31
0.0
210
0.0
220
0.0
230
1.0
 40
0.6579027409493436
 41
0.0
 42
6.283185307179586
  0
ENDBLK
  5
10289
330
10285
100
AcDbEntity
  8
0
 62
     3
100
AcDbBlockEnd
  0
BLOCK
  5
1028D
330
1028C
100
AcDbEntity
  8
0
 62
     3
100
AcDbBlockBegin
  2
*U6
 70
     1
 10
0.0
 20
0.0
 30
0.0
  3
*U6
  1

  0
INSERT
  5
1028E
330
1028C
100
AcDbEntity
  8
0
  6
ByBlock
 62
     0
370
    -2
380
     1
100
AcDbBlockReference
  2
*U4
 10
78.02791493561165
 20
154.0184009993552
 30
0.0
  0
INSERT
  5
1028F
330
1028C
100
AcDbEntity
  8
0
  6
ByBlock
 62
     0
370
    -2
380
     1
100
AcDbBlockReference
  2
*U4
 10
74.32608114102814
 20
153.9546393799988
 30
0.0
 50
51.42857142857143
  0
INSERT
  5
10290
330
1028C
100
AcDbEntity
  8
0
  6
ByBlock
 62
     0
370
    -2
380
     1
100
AcDbBlockReference
  2
*U4
 10
72.06787636331533
 20
151.0206744571106
 30
0.0
 41
1.0
 42
1.0
 43
1.0
 50
102.8571428571428
  0
INSERT
  5
10291
330
1028C
100
AcDbEntity
  8
0
  6
ByBlock
 62
     0
370
    -2
380
     1
100
AcDbBlockReference
  2
*U4
 10
72.95377485907363
 20
147.4258416596029
 30
0.0
 41
1.0
 42
1.0
 43
1.0
 50
154.2857142857142
  0
INSERT
  5
10292
330
1028C
100
AcDbEntity
  8
0
  6
ByBlock
 62
     0
370
    -2
380
     1
100
AcDbBlockReference
  2
*U4
 10
76.31667699196103
 20
145.8771234052245
 30
0.0
 41
1.0
 42
1.0
 43
1.0
 50
205.7142857142857
  0
INSERT
  5
10293
330
1028C
100
AcDbEntity
  8
0
  6
ByBlock
 62
     0
370
    -2
380
     1
100
AcDbBlockReference
  2
*U4
 10
79.62424886521127
 20
147.5407361276174
 30
0.0
 41
1.0
 42
1.0
 43
1.0
 50
257.1428571428572
  0
INSERT
  5
10294
330
1028C
100
AcDbEntity
  8
0
  6
ByBlock
 62
     0
370
    -2
380
     1
100
AcDbBlockReference
  2
*U4
 10
80.38582139609649
 20
151.1639455153045
 30
0.0
 41
1.0
 42
1.0
 43
1.0
 50
308.5714285714285
  0
ENDBLK
  5
10295
330
1028C
100
AcDbEntity
  8
0
 62
     3
100
AcDbBlockEnd
  0
BLOCK
  5
10334
330
10333
100
AcDbEntity
  8
0
 62
     3
100
AcDbBlockBegin
  2
*U7
 70
     1
 10
0.0
 20
0.0
 30
0.0
  3
*U7
  1

  0
ARC
  5
1033A
330
10333
100
AcDbEntity
  8
0
  6
Continuous
 62
     3
100
AcDbCircle
 10
1.458541205002134
 20
0.7164807340908226
 30
0.0
 40
1.86287093095201
100
AcDbArc
 50
176.8910428813125
 51
235.4323654968044
  0
ARC
  5
1033B
330
10333
100
AcDbEntity
  8
0
  6
Continuous
 62
     3
100
AcDbCircle
 10
-1.458541205002148
 20
-0.7164807340908795
 30
0.0
 40
1.86287093095201
100
AcDbArc
 50
356.8910428813126
 51
55.43236549680662
  0
ENDBLK
  5
10335
330
10333
100
AcDbEntity
  8
0
 62
     3
100
AcDbBlockEnd
  0
BLOCK
  5
10337
330
10336
100
AcDbEntity
  8
0
 62
     3
100
AcDbBlockBegin
  2
*U8
 70
     1
 10
0.0
 20
0.0
 30
0.0
  3
*U8
  1

  0
INSERT
  5
10346
330
10336
100
AcDbEntity
  8
0
  6
ByBlock
 62
     0
370
    -2
380
     1
100
AcDbBlockReference
  2
*U7
 10
89.89965427231684
 20
169.7626147946858
 30
0.0
  0
INSERT
  5
10347
330
10336
100
AcDbEntity
  8
0
  6
ByBlock
 62
     0
370
    -2
380
     1
100
AcDbBlockReference
  2
*U7
 10
89.04168151841856
 20
168.5740097137024
 30
0.0
 41
0.9999999999999996
 42
0.9999999999999996
 43
0.9999999999999996
 50
51.42857142857138
  0
INSERT
  5
10348
330
10336
100
AcDbEntity
  8
0
  6
ByBlock
 62
     0
370
    -2
380
     1
100
AcDbBlockReference
  2
*U7
 10
89.43603312862462
 20
167.1621364571743
 30
0.0
 41
0.9999999999999996
 42
0.9999999999999996
 43
0.9999999999999996
 50
102.8571428571428
  0
INSERT
  5
10349
330
10336
100
AcDbEntity
  8
0
  6
ByBlock
 62
     0
370
    -2
380
     1
100
AcDbBlockReference
  2
*U7
 10
90.78575429714298
 20
166.590164384233
 30
0.0
 41
0.9999999999999996
 42
0.9999999999999996
 43
0.9999999999999996
 50
154.2857142857142
  0
INSERT
  5
1034A
330
10336
100
AcDbEntity
  8
0
  6
ByBlock
 62
     0
370
    -2
380
     1
100
AcDbBlockReference
  2
*U7
 10
92.07447745478503
 20
167.2888001319073
 30
0.0
 41
0.9999999999999998
 42
0.9999999999999998
 43
0.9999999999999998
 50
205.7142857142856
  0
INSERT
  5
1034B
330
10336
100
AcDbEntity
  8
0
  6
ByBlock
 62
     0
370
    -2
380
     1
100
AcDbBlockReference
  2
*U7
 10
92.3317677786847
 20
168.7319567326263
 30
0.0
 41
0.9999999999999998
 42
0.9999999999999998
 43
0.9999999999999998
 50
257.1428571428572
  0
INSERT
  5
1034C
330
10336
100
AcDbEntity
  8
0
  6
ByBlock
 62
     0
370
    -2
380
     1
100
AcDbBlockReference
  2
*U7
 10
91.36388040717935
 20
169.8329078310189
 30
0.0
 41
0.9999999999999998
 42
0.9999999999999998
 43
0.9999999999999998
 50
308.5714285714284
  0
ENDBLK
  5
10338
330
10336
100
AcDbEntity
  8
0
 62
     3
100
AcDbBlockEnd
  0
BLOCK
  5
10398
330
10397
100
AcDbEntity
  8
0
 62
     3
100
AcDbBlockBegin
  2
*U9
 70
     1
 10
0.0
 20
0.0
 30
0.0
  3
*U9
  1

  0
ARC
  5
10399
330
10397
100
AcDbEntity
  8
0
  6
Continuous
 62
     3
100
AcDbCircle
 10
1.458541205002134
 20
0.7164807340908226
 30
0.0
 40
1.86287093095201
100
AcDbArc
 50
176.8910428813125
 51
235.4323654968044
  0
ARC
  5
1039A
330
10397
100
AcDbEntity
  8
0
  6
Continuous
 62
     3
100
AcDbCircle
 10
-1.458541205002148
 20
-0.7164807340908795
 30
0.0
 40
1.86287093095201
100
AcDbArc
 50
356.8910428813126
 51
55.43236549680662
  0
ENDBLK
  5
1039B
330
10397
100
AcDbEntity
  8
0
 62
     3
100
AcDbBlockEnd
  0
BLOCK
  5
1039F
330
1039E
100
AcDbEntity
  8
0
 62
     3
100
AcDbBlockBegin
  2
*U11
 70
     1
 10
0.0
 20
0.0
 30
0.0
  3
*U11
  1

  0
INSERT
  5
103A0
330
1039E
100
AcDbEntity
  8
0
  6
ByBlock
 62
     0
370
    -2
380
     1
100
AcDbBlockReference
  2
*U9
 10
89.89965427231684
 20
169.7626147946858
 30
0.0
  0
INSERT
  5
103A1
330
1039E
100
AcDbEntity
  8
0
  6
ByBlock
 62
     0
370
    -2
380
     1
100
AcDbBlockReference
  2
*U9
 10
89.04168151841856
 20
168.5740097137024
 30
0.0
 41
0.9999999999999996
 42
0.9999999999999996
 43
0.9999999999999996
 50
51.42857142857138
  0
INSERT
  5
103A2
330
1039E
100
AcDbEntity
  8
0
  6
ByBlock
 62
     0
370
    -2
380
     1
100
AcDbBlockReference
  2
*U9
 10
89.43603312862462
 20
167.1621364571743
 30
0.0
 41
0.9999999999999996
 42
0.9999999999999996
 43
0.9999999999999996
 50
102.8571428571428
  0
INSERT
  5
103A3
330
1039E
100
AcDbEntity
  8
0
  6
ByBlock
 62
     0
370
    -2
380
     1
100
AcDbBlockReference
  2
*U9
 10
90.78575429714298
 20
166.590164384233
 30
0.0
 41
0.9999999999999996
 42
0.9999999999999996
 43
0.9999999999999996
 50
154.2857142857142
  0
INSERT
  5
103A4
330
1039E
100
AcDbEntity
  8
0
  6
ByBlock
 62
     0
370
    -2
380
     1
100
AcDbBlockReference
  2
*U9
 10
92.07447745478503
 20
167.2888001319073
 30
0.0
 41
0.9999999999999998
 42
0.9999999999999998
 43
0.9999999999999998
 50
205.7142857142856
  0
INSERT
  5
103A5
330
1039E
100
AcDbEntity
  8
0
  6
ByBlock
 62
     0
370
    -2
380
     1
100
AcDbBlockReference
  2
*U9
 10
92.3317677786847
 20
168.7319567326263
 30
0.0
 41
0.9999999999999998
 42
0.9999999999999998
 43
0.9999999999999998
 50
257.1428571428572
  0
INSERT
  5
103A6
330
1039E
100
AcDbEntity
  8
0
  6
ByBlock
 62
     0
370
    -2
380
     1
100
AcDbBlockReference
  2
*U9
 10
91.36388040717935
 20
169.8329078310189
 30
0.0
 41
0.9999999999999998
 42
0.9999999999999998
 43
0.9999999999999998
 50
308.5714285714284
  0
ENDBLK
  5
103A7
330
1039E
100
AcDbEntity
  8
0
 62
     3
100
AcDbBlockEnd
  0
ENDSEC
  0
SECTION
  2
ENTITIES
  0
LINE
  5
48B
330
1F
100
AcDbEntity
  8
0
100
AcDbLine
 10
25.458883343625
 20
102.6638563302992
 30
0.0
 11
25.458883343625
 21
102.6638563302992
 31
0.0
  0
LINE
  5
4A9
330
1F
100
AcDbEntity
  8
0
100
AcDbLine
 10
35.63258224933661
 20
88.8898235023492
 30
0.0
 11
35.63258224933661
 21
88.8898235023492
 31
0.0
  0
LINE
  5
4AC
330
1F
100
AcDbEntity
  8
0
100
AcDbLine
 10
54.93236709955741
 20
57.55317121817561
 30
0.0
 11
54.93236709955741
 21
57.55317121817561
 31
0.0
  0
LINE
  5
4B2
330
1F
100
AcDbEntity
  8
0
100
AcDbLine
 10
67.06080484394252
 20
32.52713094753548
 30
0.0
 11
67.06080484394252
 21
32.52713094753548
 31
0.0
  0
LWPOLYLINE
  5
10059
330
1F
100
AcDbEntity
  8
0
100
AcDbPolyline
 90
        6
 70
     1
 43
0.0
 10
47.67065672531337
 20
41.72595167553493
 10
54.00969624629341
 20
35.2603311483654
 10
60.34889972939797
 20
41.72595167553493
 10
60.98933753472401
 20
40.46325290101643
 10
54.00969624629341
 20
33.34049164457517
 10
47.03218396986329
 20
40.46734671333104
  0
LWPOLYLINE
  5
1005A
330
1F
100
AcDbEntity
  8
0
100
AcDbPolyline
 90
        6
 70
     1
 43
0.0
 10
48.95431594865488
 20
44.25626184926184
 10
54.00969624629341
 20
39.10000965682215
 10
59.06524050605648
 20
44.25626184926184
 10
59.70698826144588
 20
42.99110688717931
 10
54.00969624629341
 20
37.18017040259378
 10
48.31256819326547
 20
42.99110688717931
  0
LWPOLYLINE
  5
1005B
330
1F
100
AcDbEntity
  8
0
100
AcDbPolyline
 90
        6
 70
     1
 43
0.0
 10
50.24223269687365
 20
46.79492360974253
 10
54.00969624629341
 20
42.95229727690998
 10
57.7773237578377
 20
46.79492360974253
 10
58.42349275066709
 20
45.52141706090623
 10
54.00969624629341
 20
41.01984916061238
 10
49.59622741660696
 20
45.52141706090623
  0
LWPOLYLINE
  5
1005C
330
1F
100
AcDbEntity
  8
0
100
AcDbPolyline
 90
        6
 70
     1
 43
0.0
 10
51.52589192021514
 20
49.32539774559398
 10
54.00969624629341
 20
46.79197603492858
 10
56.49366453449622
 20
49.32539774559398
 10
57.1354122898856
 20
48.0600788213869
 10
54.00969624629341
 20
44.8721367807002
 10
50.88398045226306
 20
48.0600788213869
  0
LWPOLYLINE
  5
1005D
330
1F
100
AcDbEntity
  8
0
100
AcDbPolyline
 90
        4
 70
     1
 43
0.0
 10
54.00969624629341
 20
54.22177396365147
 10
55.85175306654412
 20
50.59055270767652
 10
54.00969624629341
 20
48.71181528915697
 10
52.16763967560455
 20
50.59055270767652
  0
LWPOLYLINE
  5
1005E
330
1F
100
AcDbEntity
  8
0
100
AcDbPolyline
 90
        6
 70
     1
 43
0.0
 10
46.38699750197189
 20
39.19547778924533
 10
54.00969624629341
 20
31.42065239034679
 10
61.63255895273946
 20
39.19547778924533
 10
62.27266908337828
 20
37.93343386497759
 10
54.00969624629341
 20
29.50081288655658
 10
45.74917984633441
 20
37.9381827771048
  0
LWPOLYLINE
  5
1005F
330
1F
100
AcDbEntity
  8
0
100
AcDbPolyline
 90
        6
 70
     1
 43
0.0
 10
45.1033382786304
 20
36.66516736595658
 10
54.00969624629341
 20
27.58113734489088
 10
62.91621817608095
 20
36.66516736595658
 10
63.55616459415708
 20
35.40361482893874
 10
54.00969624629341
 20
25.6612980906625
 10
44.46617572280553
 20
35.40885487875403
  0
LWPOLYLINE
  5
10060
330
1F
100
AcDbEntity
  8
0
100
AcDbPolyline
 90
        6
 70
     1
 43
0.0
 10
43.81967905528891
 20
34.13469347966696
 10
54.00969624629341
 20
23.74145883643411
 10
64.19987739942245
 20
34.13469347966696
 10
64.84162515481185
 20
32.86953826802258
 10
54.00969624629341
 20
21.82161933264389
 10
43.17776758733683
 20
32.86953826802258
  0
LWPOLYLINE
  5
10061
330
1F
100
AcDbEntity
  8
0
100
AcDbPolyline
 90
        6
 70
     1
 43
0.0
 10
24.06441598495426
 20
30.44794172102501
 10
28.42527618191882
 20
26.08438600669821
 10
29.30973879221868
 20
26.89311084312119
 10
24.06306835105406
 20
32.09342217899518
 10
18.90076079028944
 20
26.97531750928087
 10
19.81123298442504
 20
26.11511255874649
  0
LWPOLYLINE
  5
10062
330
1F
100
AcDbEntity
  8
0
100
AcDbPolyline
 90
        6
 70
     1
 43
0.0
 10
24.06441598495426
 20
33.8941518092015
 10
30.22492770500497
 20
27.73000147762024
 10
31.11815018521799
 20
28.5468118678826
 10
24.06306835105406
 20
35.53976703056171
 10
17.12091948553626
 20
28.65704981829016
 10
17.99837439955506
 20
27.82797546041229
  0
LWPOLYLINE
  5
10063
330
1F
100
AcDbEntity
  8
0
100
AcDbPolyline
 90
        6
 70
     1
 43
0.0
 10
24.06441598495426
 20
37.08134391657893
 10
31.891566514332
 20
29.25419338720118
 10
32.85351882257899
 20
30.13380451546031
 10
24.06306835105406
 20
38.52979780272116
 10
15.5579152205058
 20
30.13380451546031
 10
16.3596321110859
 20
29.37642527932056
  0
LWPOLYLINE
  5
10064
330
1F
100
AcDbEntity
  8
0
100
AcDbPolyline
 90
        3
 70
     1
 43
0.0
 10
24.56223793717304
 20
39.40833082386013
 10
28.27528278189345
 20
42.7587231434849
 10
32.07134287311367
 20
32.26861658251616
  0
LWPOLYLINE
  5
10065
330
1F
100
AcDbEntity
  8
0
100
AcDbPolyline
 90
        3
 70
     1
 43
0.0
 10
23.45015721594882
 20
39.41169990861065
 10
20.01863633728453
 20
42.84322078727493
 10
16.30720865324436
 20
32.26861658251616
  0
LWPOLYLINE
  5
10066
330
1F
100
AcDbEntity
  8
0
100
AcDbPolyline
 90
        6
 70
     1
 43
0.0
 10
24.00094167956922
 20
41.31444667287147
 10
27.50537030091996
 20
44.70675115547803
 10
27.86209323685472
 20
43.72283191553407
 10
24.00296313041953
 20
40.10533531258533
 10
20.26687349644382
 20
43.73105248232529
 10
20.60917650008457
 20
44.70634686530796
  0
LWPOLYLINE
  5
10067
330
1F
100
AcDbEntity
  8
0
100
AcDbPolyline
 90
        3
 70
     1
 43
0.0
 10
25.01814772641002
 20
48.87853607018769
 10
25.77983939103044
 20
49.6402277348081
 10
26.60352296374566
 20
47.2931605832902
  0
LWPOLYLINE
  5
10068
330
1F
100
AcDbEntity
  8
0
100
AcDbPolyline
 90
        3
 70
     1
 43
0.0
 10
23.16593773253047
 20
48.87853607018769
 10
22.40424606791005
 20
49.6402277348081
 10
21.58056249519482
 20
47.2931605832902
  0
LWPOLYLINE
  5
10069
330
1F
100
AcDbEntity
  8
0
100
AcDbPolyline
 90
        6
 70
     1
 43
0.0
 10
24.04986128927024
 20
51.12048628011878
 10
23.2056934317101
 20
51.96478890106894
 10
22.85624796839828
 20
50.96928000958323
 10
24.04231453942911
 20
49.78321343855241
 10
25.27258400151024
 20
50.99838915138943
 10
24.91464819506531
 20
51.98540794930386
  0
LWPOLYLINE
  5
1006A
330
1F
100
AcDbEntity
  8
0
100
AcDbPolyline
 90
        4
 70
     1
 43
0.0
 10
24.06441598495426
 20
28.84410340013292
 10
20.59489133118059
 20
25.37471375931111
 10
24.06441598495426
 20
22.09642060203266
 10
27.58905936436987
 20
25.31946002071732
  0
LWPOLYLINE
  5
1006B
330
1F
100
AcDbEntity
  8
0
100
AcDbPolyline
 90
        4
 70
     1
 43
0.0
 10
24.06441598495426
 20
48.18355303231278
 10
21.40253806048341
 20
45.5216748582801
 10
24.06441598495426
 20
42.85966217041923
 10
26.7262939094251
 20
45.5216748582801
  0
LWPOLYLINE
  5
1006C
330
1F
100
AcDbEntity
  8
0
100
AcDbPolyline
 90
        4
 70
     1
 43
0.0
 10
24.06441598495426
 20
56.80339105557742
 10
22.08781788471501
 20
54.82679295533819
 10
24.06441598495426
 20
52.85019485509893
 10
26.0410140851935
 20
54.82679295533819
  0
LWPOLYLINE
  5
1006E
330
1F
100
AcDbEntity
  8
0
100
AcDbPolyline
 90
        6
 70
     1
 43
0.0
 10
15.96993981090637
 20
74.92364927545949
 10
16.70817266318993
 20
75.66188212774306
 10
24.81507651741602
 20
67.55497827351695
 10
32.9221141367848
 20
75.66188212774306
 10
33.66034698906835
 20
74.92364927545949
 10
24.81507651741602
 20
66.07851281851167
  0
LWPOLYLINE
  5
1006F
330
1F
100
AcDbEntity
  8
0
100
AcDbPolyline
 90
        4
 70
     1
 43
0.0
 10
23.81911816506841
 20
98.05601252326443
 10
16.70817266318993
 20
90.94479899197688
 10
15.96993981090637
 20
91.68303159469861
 10
23.08088556234669
 20
98.79424512598616
  0
LWPOLYLINE
  5
10070
330
1F
100
AcDbEntity
  8
0
100
AcDbPolyline
 90
        6
 70
     1
 43
0.0
 10
25.80741971704541
 20
99.53381662794392
 10
25.07052576399789
 20
98.79652112990649
 10
24.81507651741602
 20
99.0519706260502
 10
24.55735101735197
 20
98.79424512598616
 10
23.81911816506841
 20
99.5324779782697
 10
24.81507651741602
 20
100.5284360810555
  0
LWPOLYLINE
  5
10071
330
1F
100
AcDbEntity
  8
0
100
AcDbPolyline
 90
        4
 70
     1
 43
0.0
 10
26.54618787946155
 20
98.79491470038509
 10
33.66034698906835
 20
91.68303159469861
 10
32.9221141367848
 20
90.94479899197688
 10
25.80875861628145
 20
98.05828852718477
  0
LWPOLYLINE
  5
10072
330
1F
100
AcDbEntity
  8
0
100
AcDbPolyline
 90
        6
 70
     1
 43
0.0
 10
17.36647684972881
 20
90.28649455587617
 10
24.81507651741602
 20
97.73522798870608
 10
32.26380970068408
 20
90.28649455587617
 10
31.52557709796236
 20
89.54826195315446
 10
24.81507651741602
 20
96.25862876855808
 10
18.10470970201237
 20
89.54826195315446
  0
LWPOLYLINE
  5
10073
330
1F
100
AcDbEntity
  8
0
100
AcDbPolyline
 90
        6
 70
     1
 43
0.0
 10
18.76314790325577
 20
88.8898235023492
 10
24.81507651741602
 20
94.94188613121398
 10
30.86713889671894
 20
88.8898235023492
 10
30.12890604443539
 20
88.15159089962747
 10
24.81507651741602
 20
93.46542067620868
 10
19.50138075553933
 20
88.15159089962747
  0
LWPOLYLINE
  5
10074
330
1F
100
AcDbEntity
  8
0
100
AcDbPolyline
 90
        6
 70
     1
 43
0.0
 10
20.15968494207822
 20
87.49328646352678
 10
24.81507651741602
 20
92.14867803886454
 10
29.4706018578965
 20
87.49328646352678
 10
28.73236900561295
 20
86.75491984610051
 10
24.81507651741602
 20
90.67221258385927
 10
20.89791779436177
 20
86.75491984610051
  0
LWPOLYLINE
  5
10075
330
1F
100
AcDbEntity
  8
0
100
AcDbPolyline
 90
        6
 70
     1
 43
0.0
 10
21.55635599560518
 20
86.09661565956164
 10
24.81507651741602
 20
89.35546994651517
 10
28.07393080436954
 20
86.09661565956164
 10
27.33569795208598
 20
85.35838280727807
 10
24.81507651741602
 20
87.87900449150987
 10
22.29458859832691
 20
85.35838280727807
  0
LWPOLYLINE
  5
10076
330
1F
100
AcDbEntity
  8
0
100
AcDbPolyline
 90
        6
 70
     1
 43
0.0
 10
22.95289303442763
 20
84.69994460603468
 10
24.81507651741602
 20
86.56226185416574
 10
26.6773937655471
 20
84.69994460603468
 10
25.93902714812085
 20
83.9617117537511
 10
24.81507651741602
 20
85.08566238445595
 10
23.69125965185387
 20
83.9617117537511
  0
LWPOLYLINE
  5
10077
330
1F
100
AcDbEntity
  8
0
100
AcDbPolyline
 90
        4
 70
     1
 43
0.0
 10
24.34956408795459
 20
83.30340756721222
 10
24.81507651741602
 20
83.76905376181634
 10
25.28072271202013
 20
83.30340756721222
 10
24.81507651741602
 20
82.83789513775081
  0
LWPOLYLINE
  5
10078
330
1F
100
AcDbEntity
  8
0
100
AcDbPolyline
 90
        4
 70
     1
 43
0.0
 10
32.9221141367848
 20
89.62805635463277
 10
33.66034698906835
 20
88.8898235023492
 10
32.9221141367848
 20
88.15159089962747
 10
32.18388153406307
 20
88.8898235023492
  0
LWPOLYLINE
  5
10079
330
1F
100
AcDbEntity
  8
0
100
AcDbPolyline
 90
        4
 70
     1
 43
0.0
 10
31.52557709796236
 20
88.23151931581032
 10
32.26380970068408
 20
87.49328646352678
 10
31.52557709796236
 20
86.75491984610051
 10
30.7873442456788
 20
87.49328646352678
  0
LWPOLYLINE
  5
1007A
330
1F
100
AcDbEntity
  8
0
100
AcDbPolyline
 90
        4
 70
     1
 43
0.0
 10
30.12890604443539
 20
86.83484826228335
 10
30.86713889671894
 20
86.09661565956164
 10
30.12890604443539
 20
85.35838280727807
 10
29.39067344171366
 20
86.09661565956164
  0
LWPOLYLINE
  5
1007B
330
1F
100
AcDbEntity
  8
0
100
AcDbPolyline
 90
        4
 70
     1
 43
0.0
 10
28.73236900561295
 20
85.43817720875637
 10
29.4706018578965
 20
84.69994460603468
 10
28.73236900561295
 20
83.9617117537511
 10
27.9940023881867
 20
84.69994460603468
  0
LWPOLYLINE
  5
1007C
330
1F
100
AcDbEntity
  8
0
100
AcDbPolyline
 90
        4
 70
     1
 43
0.0
 10
27.33569795208598
 20
84.04164016993394
 10
28.07393080436954
 20
83.30340756721222
 10
27.33569795208598
 20
82.56517471492868
 10
26.59746534936426
 20
83.30340756721222
  0
LWPOLYLINE
  5
1007D
330
1F
100
AcDbEntity
  8
0
100
AcDbPolyline
 90
        6
 70
     1
 43
0.0
 10
25.93902714812085
 20
82.644969116407
 10
26.6773937655471
 20
81.90673651368525
 10
24.81507651741602
 20
80.04468704540139
 10
22.95289303442763
 20
81.90673651368525
 10
23.69125965185387
 20
82.644969116407
 10
24.81507651741602
 20
81.52115250040669
  0
LWPOLYLINE
  5
1007E
330
1F
100
AcDbEntity
  8
0
100
AcDbPolyline
 90
        4
 70
     1
 43
0.0
 10
23.03282145061047
 20
83.30340756721222
 10
22.29458859832691
 20
82.56517471492868
 10
21.55635599560518
 20
83.30340756721222
 10
22.29458859832691
 20
84.04164016993394
  0
LWPOLYLINE
  5
1007F
330
1F
100
AcDbEntity
  8
0
100
AcDbPolyline
 90
        4
 70
     1
 43
0.0
 10
21.63628441178802
 20
84.69994460603468
 10
20.89791779436177
 20
83.9617117537511
 10
20.15968494207822
 20
84.69994460603468
 10
20.89791779436177
 20
85.43817720875637
  0
LWPOLYLINE
  5
10080
330
1F
100
AcDbEntity
  8
0
100
AcDbPolyline
 90
        4
 70
     1
 43
0.0
 10
20.23961335826106
 20
86.09661565956164
 10
19.50138075553933
 20
85.35838280727807
 10
18.76314790325577
 20
86.09661565956164
 10
19.50138075553933
 20
86.83484826228335
  0
LWPOLYLINE
  5
10081
330
1F
100
AcDbEntity
  8
0
100
AcDbPolyline
 90
        4
 70
     1
 43
0.0
 10
18.84294230473409
 20
87.49328646352678
 10
18.10470970201237
 20
86.75491984610051
 10
17.36647684972881
 20
87.49328646352678
 10
18.10470970201237
 20
88.23151931581032
  0
LWPOLYLINE
  5
10082
330
1F
100
AcDbEntity
  8
0
100
AcDbPolyline
 90
        4
 70
     1
 43
0.0
 10
17.44640526591165
 20
88.8898235023492
 10
16.70817266318993
 20
88.15159089962747
 10
15.96993981090637
 20
88.8898235023492
 10
16.70817266318993
 20
89.62805635463277
  0
LWPOLYLINE
  5
10083
330
1F
100
AcDbEntity
  8
0
100
AcDbPolyline
 90
        4
 70
     1
 43
0.0
 10
32.9221141367848
 20
86.83484826228335
 10
33.66034698906835
 20
86.09661565956164
 10
32.9221141367848
 20
85.35838280727807
 10
32.18388153406307
 20
86.09661565956164
  0
LWPOLYLINE
  5
10084
330
1F
100
AcDbEntity
  8
0
100
AcDbPolyline
 90
        4
 70
     1
 43
0.0
 10
31.52557709796236
 20
85.43817720875637
 10
32.26380970068408
 20
84.69994460603468
 10
31.52557709796236
 20
83.9617117537511
 10
30.7873442456788
 20
84.69994460603468
  0
LWPOLYLINE
  5
10085
330
1F
100
AcDbEntity
  8
0
100
AcDbPolyline
 90
        4
 70
     1
 43
0.0
 10
30.12890604443539
 20
84.04164016993394
 10
30.86713889671894
 20
83.30340756721222
 10
30.12890604443539
 20
82.56517471492868
 10
29.39067344171366
 20
83.30340756721222
  0
LWPOLYLINE
  5
10086
330
1F
100
AcDbEntity
  8
0
100
AcDbPolyline
 90
        4
 70
     1
 43
0.0
 10
28.73236900561295
 20
82.644969116407
 10
29.4706018578965
 20
81.90673651368525
 10
28.73236900561295
 20
81.1685036614017
 10
27.9940023881867
 20
81.90673651368525
  0
LWPOLYLINE
  5
10087
330
1F
100
AcDbEntity
  8
0
100
AcDbPolyline
 90
        6
 70
     1
 43
0.0
 10
27.33569795208598
 20
81.24843207758454
 10
28.07393080436954
 20
80.51019947486281
 10
24.81507651741602
 20
77.25147895305198
 10
21.55635599560518
 20
80.51019947486281
 10
22.29458859832691
 20
81.24843207758454
 10
24.81507651741602
 20
78.72794440805728
  0
LWPOLYLINE
  5
10088
330
1F
100
AcDbEntity
  8
0
100
AcDbPolyline
 90
        4
 70
     1
 43
0.0
 10
21.63628441178802
 20
81.90673651368525
 10
20.89791779436177
 20
81.1685036614017
 10
20.15968494207822
 20
81.90673651368525
 10
20.89791779436177
 20
82.644969116407
  0
LWPOLYLINE
  5
10089
330
1F
100
AcDbEntity
  8
0
100
AcDbPolyline
 90
        4
 70
     1
 43
0.0
 10
20.23961335826106
 20
83.30340756721222
 10
19.50138075553933
 20
82.56517471492868
 10
18.76314790325577
 20
83.30340756721222
 10
19.50138075553933
 20
84.04164016993394
  0
LWPOLYLINE
  5
1008A
330
1F
100
AcDbEntity
  8
0
100
AcDbPolyline
 90
        4
 70
     1
 43
0.0
 10
18.84294230473409
 20
84.69994460603468
 10
18.10470970201237
 20
83.9617117537511
 10
17.36647684972881
 20
84.69994460603468
 10
18.10470970201237
 20
85.43817720875637
  0
LWPOLYLINE
  5
1008B
330
1F
100
AcDbEntity
  8
0
100
AcDbPolyline
 90
        4
 70
     1
 43
0.0
 10
17.44640526591165
 20
86.09661565956164
 10
16.70817266318993
 20
85.35838280727807
 10
15.96993981090637
 20
86.09661565956164
 10
16.70817266318993
 20
86.83484826228335
  0
LWPOLYLINE
  5
1008C
330
1F
100
AcDbEntity
  8
0
100
AcDbPolyline
 90
        4
 70
     1
 43
0.0
 10
32.9221141367848
 20
84.04164016993394
 10
33.66034698906835
 20
83.30340756721222
 10
32.9221141367848
 20
82.56517471492868
 10
32.18388153406307
 20
83.30340756721222
  0
LWPOLYLINE
  5
1008D
330
1F
100
AcDbEntity
  8
0
100
AcDbPolyline
 90
        4
 70
     1
 43
0.0
 10
31.52557709796236
 20
82.644969116407
 10
32.26380970068408
 20
81.90673651368525
 10
31.52557709796236
 20
81.1685036614017
 10
30.7873442456788
 20
81.90673651368525
  0
LWPOLYLINE
  5
1008E
330
1F
100
AcDbEntity
  8
0
100
AcDbPolyline
 90
        4
 70
     1
 43
0.0
 10
30.12890604443539
 20
81.24843207758454
 10
30.86713889671894
 20
80.51019947486281
 10
30.12890604443539
 20
79.77183285743658
 10
29.39067344171366
 20
80.51019947486281
  0
LWPOLYLINE
  5
1008F
330
1F
100
AcDbEntity
  8
0
100
AcDbPolyline
 90
        6
 70
     1
 43
0.0
 10
28.73236900561295
 20
79.85176102405756
 10
29.4706018578965
 20
79.11352842133585
 10
24.81507651741602
 20
74.45813709555989
 10
20.15968494207822
 20
79.11352842133585
 10
20.89791779436177
 20
79.85176102405756
 10
24.81507651741602
 20
75.93473631570785
  0
LWPOLYLINE
  5
10090
330
1F
100
AcDbEntity
  8
0
100
AcDbPolyline
 90
        4
 70
     1
 43
0.0
 10
20.23961335826106
 20
80.51019947486281
 10
19.50138075553933
 20
79.77183285743658
 10
18.76314790325577
 20
80.51019947486281
 10
19.50138075553933
 20
81.24843207758454
  0
LWPOLYLINE
  5
10091
330
1F
100
AcDbEntity
  8
0
100
AcDbPolyline
 90
        4
 70
     1
 43
0.0
 10
18.84294230473409
 20
81.90673651368525
 10
18.10470970201237
 20
81.1685036614017
 10
17.36647684972881
 20
81.90673651368525
 10
18.10470970201237
 20
82.644969116407
  0
LWPOLYLINE
  5
10092
330
1F
100
AcDbEntity
  8
0
100
AcDbPolyline
 90
        4
 70
     1
 43
0.0
 10
17.44640526591165
 20
83.30340756721222
 10
16.70817266318993
 20
82.56517471492868
 10
15.96993981090637
 20
83.30340756721222
 10
16.70817266318993
 20
84.04164016993394
  0
LWPOLYLINE
  5
10093
330
1F
100
AcDbEntity
  8
0
100
AcDbPolyline
 90
        4
 70
     1
 43
0.0
 10
32.9221141367848
 20
81.24843207758454
 10
33.66034698906835
 20
80.51019947486281
 10
32.9221141367848
 20
79.77183285743658
 10
32.18388153406307
 20
80.51019947486281
  0
LWPOLYLINE
  5
10094
330
1F
100
AcDbEntity
  8
0
100
AcDbPolyline
 90
        4
 70
     1
 43
0.0
 10
31.52557709796236
 20
79.85176102405756
 10
32.26380970068408
 20
79.11352842133585
 10
31.52557709796236
 20
78.3752955690523
 10
30.7873442456788
 20
79.11352842133585
  0
LWPOLYLINE
  5
10095
330
1F
100
AcDbEntity
  8
0
100
AcDbPolyline
 90
        6
 70
     1
 43
0.0
 10
30.12890604443539
 20
78.45522398523513
 10
30.86713889671894
 20
77.71685736780887
 10
24.81507651741602
 20
71.66492900321049
 10
18.76314790325577
 20
77.71685736780887
 10
19.50138075553933
 20
78.45522398523513
 10
24.81507651741602
 20
73.14139445821576
  0
LWPOLYLINE
  5
10096
330
1F
100
AcDbEntity
  8
0
100
AcDbPolyline
 90
        4
 70
     1
 43
0.0
 10
18.84294230473409
 20
79.11352842133585
 10
18.10470970201237
 20
78.3752955690523
 10
17.36647684972881
 20
79.11352842133585
 10
18.10470970201237
 20
79.85176102405756
  0
LWPOLYLINE
  5
10097
330
1F
100
AcDbEntity
  8
0
100
AcDbPolyline
 90
        4
 70
     1
 43
0.0
 10
17.44640526591165
 20
80.51019947486281
 10
16.70817266318993
 20
79.77183285743658
 10
15.96993981090637
 20
80.51019947486281
 10
16.70817266318993
 20
81.24843207758454
  0
LWPOLYLINE
  5
10098
330
1F
100
AcDbEntity
  8
0
100
AcDbPolyline
 90
        4
 70
     1
 43
0.0
 10
32.9221141367848
 20
78.45522398523513
 10
33.66034698906835
 20
77.71685736780887
 10
32.9221141367848
 20
76.97862476508714
 10
32.18388153406307
 20
77.71685736780887
  0
LWPOLYLINE
  5
10099
330
1F
100
AcDbEntity
  8
0
100
AcDbPolyline
 90
        6
 70
     1
 43
0.0
 10
31.52557709796236
 20
77.05855293170817
 10
32.26380970068408
 20
76.32032032898644
 10
24.81507651741602
 20
68.87172091086107
 10
17.36647684972881
 20
76.32032032898644
 10
18.10470970201237
 20
77.05855293170817
 10
24.81507651741602
 20
70.34818636586635
  0
LWPOLYLINE
  5
1009A
330
1F
100
AcDbEntity
  8
0
100
AcDbPolyline
 90
        4
 70
     1
 43
0.0
 10
17.44640526591165
 20
77.71685736780887
 10
16.70817266318993
 20
76.97862476508714
 10
15.96993981090637
 20
77.71685736780887
 10
16.70817266318993
 20
78.45522398523513
  0
CIRCLE
  5
1015B
330
1F
100
AcDbEntity
  8
0
100
AcDbCircle
 10
50.7221938327067
 20
83.30836977850498
 30
0.0
 40
0.5042455826421908
  0
SPLINE
  5
101A9
330
1F
100
AcDbEntity
  8
0
100
AcDbSpline
210
0.0
220
0.0
230
1.0
 70
     9
 71
     3
 72
    11
 73
     7
 74
     0
 42
0.000000001
 43
0.0000000001
 40
0.0
 40
0.0
 40
0.0
 40
0.0
 40
0.5
 40
0.5
 40
0.5
 40
1.0
 40
1.0
 40
1.0
 40
1.0
 10
86.20328953418555
 20
90.6201538823233
 30
0.0
 10
88.09190485223698
 20
90.95146324687803
 30
0.0
 10
89.04936732431339
 20
91.8715804442146
 30
0.0
 10
89.07575691888332
 20
93.38058544280167
 30
0.0
 10
87.53468456447039
 20
93.09573775838371
 30
0.0
 10
86.57722209239398
 20
92.17562056104709
 30
0.0
 10
86.20328953418555
 20
90.6201538823233
 30
0.0
  0
SPLINE
  5
101AA
330
1F
100
AcDbEntity
  8
0
100
AcDbSpline
210
0.0
220
0.0
230
1.0
 70
     9
 71
     3
 72
    14
 73
    10
 74
     0
 42
0.000000001
 43
0.0000000001
 40
0.0
 40
0.0
 40
0.0
 40
0.0
 40
0.3333333333333333
 40
0.3333333333333333
 40
0.3333333333333333
 40
0.6666666666666666
 40
0.6666666666666666
 40
0.6666666666666666
 40
1.0
 40
1.0
 40
1.0
 40
1.0
 10
78.68185523942641
 20
91.74395076865843
 30
0.0
 10
78.68537385203565
 20
92.36730497978655
 30
0.0
 10
78.72079988353404
 20
92.97074704228448
 30
0.0
 10
78.796769928508
 20
93.5541969876842
 30
0.0
 10
79.7403978555523
 20
92.86406910544741
 30
0.0
 10
80.46611170622417
 20
92.38105955635015
 30
0.0
 10
80.81021602572178
 20
92.08613584491464
 30
0.0
 10
79.94375767067724
 20
92.00632731345786
 30
0.0
 10
79.23731622088823
 20
91.89749022797414
 30
0.0
 10
78.68185523942641
 20
91.74395076865843
 30
0.0
  0
SPLINE
  5
101AB
330
1F
100
AcDbEntity
  8
0
100
AcDbSpline
210
0.0
220
0.0
230
1.0
 70
     9
 71
     3
 72
    17
 73
    13
 74
     0
 42
0.000000001
 43
0.0000000001
 40
0.0
 40
0.0
 40
0.0
 40
0.0
 40
0.25
 40
0.25
 40
0.25
 40
0.5
 40
0.5
 40
0.5
 40
0.75
 40
0.75
 40
0.75
 40
1.0
 40
1.0
 40
1.0
 40
1.0
 10
78.84715006359595
 20
88.80335024888927
 30
0.0
 10
80.58662418809333
 20
88.82550151463433
 30
0.0
 10
81.79430799777325
 20
89.09539509546267
 30
0.0
 10
82.48059739352711
 20
89.60143556345732
 30
0.0
 10
83.45981128900657
 20
89.12210456390628
 30
0.0
 10
83.92850648226149
 20
88.38623471774837
 30
0.0
 10
84.04653994161034
 20
87.40894006551034
 30
0.0
 10
84.30075970263356
 20
85.30648906297443
 30
0.0
 10
82.23853283969971
 20
82.95101782644122
 30
0.0
 10
81.40518143057006
 20
80.59154816648833
 30
0.0
 10
80.21900913888796
 20
82.62618590782649
 30
0.0
 10
79.08449647778811
 20
86.47890677809286
 30
0.0
 10
78.84715006359595
 20
88.80335024888927
 30
0.0
  0
SPLINE
  5
101AC
330
1F
100
AcDbEntity
  8
0
100
AcDbSpline
210
0.0
220
0.0
230
1.0
 70
     9
 71
     3
 72
    14
 73
    10
 74
     0
 42
0.000000001
 43
0.0000000001
 40
0.0
 40
0.0
 40
0.0
 40
0.0
 40
0.3333333333333333
 40
0.3333333333333333
 40
0.3333333333333333
 40
0.6666666666666666
 40
0.6666666666666666
 40
0.6666666666666666
 40
1.0
 40
1.0
 40
1.0
 40
1.0
 10
78.83211599153797
 20
88.95265137938016
 30
0.0
 10
78.74135177991123
 20
89.86837031095522
 30
0.0
 10
78.68353457726264
 20
90.74658403085363
 30
0.0
 10
78.68161533402119
 20
91.58801225529101
 30
0.0
 10
79.98214253550618
 20
91.34218918344913
 30
0.0
 10
80.96807378233069
 20
91.10140412511592
 30
0.0
 10
81.6453267411561
 20
90.85430155777979
 30
0.0
 10
81.04700266063515
 20
90.02990661711029
 30
0.0
 10
80.11073183268301
 20
89.40103458166309
 30
0.0
 10
78.83211599153797
 20
88.95265137938016
 30
0.0
  0
SPLINE
  5
101AD
330
1F
100
AcDbEntity
  8
0
100
AcDbSpline
210
0.0
220
0.0
230
1.0
 70
     9
 71
     3
 72
    11
 73
     7
 74
     0
 42
0.000000001
 43
0.0000000001
 40
0.0
 40
0.0
 40
0.0
 40
0.0
 40
0.5
 40
0.5
 40
0.5
 40
1.0
 40
1.0
 40
1.0
 40
1.0
 10
85.55682443569175
 20
90.65893858949412
 30
0.0
 10
83.66828908610875
 20
90.9902479540489
 30
0.0
 10
82.71082661403221
 20
91.9103651513854
 30
0.0
 10
82.68443701946241
 20
93.4193701499726
 30
0.0
 10
84.22550937387521
 20
93.13452246555456
 30
0.0
 10
85.18297184595175
 20
92.21440526821799
 30
0.0
 10
85.55682443569175
 20
90.65893858949412
 30
0.0
  0
CIRCLE
  5
101B7
330
1F
100
AcDbEntity
  8
0
100
AcDbCircle
 10
54.43287622190384
 20
102.6673842330624
 30
0.0
 40
0.5959621927430657
  0
CIRCLE
  5
101B8
330
1F
100
AcDbEntity
  8
0
100
AcDbCircle
 10
58.14120946522617
 20
83.30836977850498
 30
0.0
 40
0.5042455826421908
  0
CIRCLE
  5
101B9
330
1F
100
AcDbEntity
  8
0
100
AcDbCircle
 10
84.3714047684824
 20
104.9402242184355
 30
0.0
 40
0.5368938002156868
  0
SPLINE
  5
101BC
330
1F
100
AcDbEntity
  8
0
100
AcDbSpline
210
0.0
220
0.0
230
1.0
 70
     9
 71
     3
 72
    35
 73
    31
 74
     0
 42
0.000000001
 43
0.0000000001
 40
0.0
 40
0.0
 40
0.0
 40
0.0
 40
0.1428571428571428
 40
0.1428571428571428
 40
0.1428571428571428
 40
0.2857142857142857
 40
0.2857142857142857
 40
0.2857142857142857
 40
0.4285714285714287
 40
0.4285714285714287
 40
0.4285714285714287
 40
3.211941626577828
 40
5.64436104819735
 40
8.619298435929792
 40
10.75988039737723
 40
12.48868761306159
 40
14.11053377753403
 40
15.2865616338191
 40
16.25856651903088
 40
17.36675462217388
 40
18.27970212452613
 40
19.38717395969436
 40
20.23142583115446
 40
20.87318101207998
 40
21.56488522075776
 40
21.89588633746287
 40
22.14333896014692
 40
22.14333896014692
 40
22.14333896014692
 40
22.28619610300407
 40
22.28619610300407
 40
22.28619610300407
 40
22.28619610300407
 10
83.92474796424696
 20
99.40325070292807
 30
0.0
 10
83.67132788790771
 20
98.36198127597524
 30
0.0
 10
83.40535276203057
 20
97.68336885318724
 30
0.0
 10
83.19063742439377
 20
97.32742920036731
 30
0.0
 10
82.44069312779876
 20
96.0846392330626
 30
0.0
 10
82.06931956057884
 20
94.58003250023713
 30
0.0
 10
82.00038674082353
 20
92.85911106040712
 30
0.0
 10
81.15871861098106
 20
93.19649802855961
 30
0.0
 10
80.04955595436197
 20
93.51557221745011
 30
0.0
 10
78.81372324380743
 20
93.67894779837811
 30
0.0
 10
78.95723608376219
 20
94.54310033143528
 30
0.0
 10
79.22616645509958
 20
96.1624457619933
 30
0.0
 10
79.98550946253586
 20
98.62811495861254
 30
0.0
 10
81.05148691365235
 20
100.779549141017
 30
0.0
 10
82.61563812412619
 20
102.3312074410827
 30
0.0
 10
84.27126157398836
 20
102.9700068589625
 30
0.0
 10
85.73258958076186
 20
102.9098181418504
 30
0.0
 10
86.8301884331778
 20
102.200785168281
 30
0.0
 10
87.21907375074852
 20
101.048544498819
 30
0.0
 10
86.97328827988986
 20
100.0824291905948
 30
0.0
 10
86.04751327007372
 20
99.43817724327127
 30
0.0
 10
85.04975888330909
 20
99.49812385498482
 30
0.0
 10
84.37265583897788
 20
100.0349745483051
 30
0.0
 10
84.17629718004935
 20
100.7309405334551
 30
0.0
 10
84.32719804800383
 20
101.2530310785902
 30
0.0
 10
84.52641078741185
 20
101.5993369089782
 30
0.0
 10
84.63659414196474
 20
101.7442372993482
 30
0.0
 10
84.68372869777045
 20
101.8062232096872
 30
0.0
 10
83.85573517602324
 20
101.1280905977095
 30
0.0
 10
83.60687330238247
 20
100.1169692833409
 30
0.0
 10
83.92474796424696
 20
99.40325070292807
 30
0.0
  0
CIRCLE
  5
1024E
330
1F
100
AcDbEntity
  8
0
100
AcDbCircle
 10
24.81471738120381
 20
102.6638563302992
 30
0.0
 40
0.6437915097959034
  0
CIRCLE
  5
10396
330
1F
100
AcDbEntity
  8
0
100
AcDbCircle
 10
54.41760786056481
 20
92.24184620567426
 30
0.0
 40
0.6012617630754643
  0
SPLINE
  5
104A1
330
1F
100
AcDbEntity
  8
0
100
AcDbSpline
210
0.0
220
0.0
230
1.0
 70
     9
 71
     3
 72
    18
 73
    14
 74
     0
 42
0.000000001
 43
0.0000000001
 40
0.0
 40
0.0
 40
0.0
 40
0.0
 40
0.3735850646720427
 40
1.183800035448006
 40
2.282705916310066
 40
2.882877963199744
 40
2.882877963199744
 40
2.882877963199744
 40
3.298795484004737
 40
3.985300240213119
 40
4.84522346276347
 40
5.51320133917058
 40
5.743857896195773
 40
5.743857896195773
 40
5.743857896195773
 40
5.743857896195773
 10
48.56546908640531
 20
81.21181116662127
 30
0.0
 10
48.50376360589905
 20
81.10363588273029
 30
0.0
 10
48.30823397444873
 20
80.76085476802708
 30
0.0
 10
48.02093840374786
 20
80.05009844969555
 30
0.0
 10
47.89367793190831
 20
79.21662155457878
 30
0.0
 10
47.8662366462016
 20
78.65117750805132
 30
0.0
 10
47.85654345182665
 20
78.45144346097615
 30
0.0
 10
47.9223870104074
 20
78.57425420311137
 30
0.0
 10
48.09691056891674
 20
78.89977378623533
 30
0.0
 10
48.20275122137035
 20
79.55376766010238
 30
0.0
 10
48.36475690156227
 20
80.27061357865472
 30
0.0
 10
48.52847281812142
 20
80.83685525184245
 30
0.0
 10
48.55791263555495
 20
81.13522679548053
 30
0.0
 10
48.56546908640531
 20
81.21181116662127
 30
0.0
  0
SPLINE
  5
104A5
330
1F
100
AcDbEntity
  8
0
100
AcDbSpline
210
0.0
220
0.0
230
1.0
 70
     9
 71
     3
 72
   118
 73
   114
 74
     0
 42
0.000000001
 43
0.0000000001
 40
0.0
 40
0.0
 40
0.0
 40
0.0
 40
0.3812123833649968
 40
0.7495873443104345
 40
1.134311929099004
 40
1.678221845180287
 40
1.915075782173208
 40
2.024535178635203
 40
2.366994197664017
 40
2.458592602817835
 40
2.541515824834118
 40
2.575224685969109
 40
2.623819801260722
 40
2.664032511248998
 40
2.814397284352133
 40
3.124595094195168
 40
3.778939169096659
 40
4.041834443664629
 40
4.140916995713936
 40
4.477320588495418
 40
4.620640365153402
 40
4.838598561911389
 40
4.989541661052141
 40
5.117123022273803
 40
5.275462543552623
 40
5.635188205141661
 40
6.292753679687878
 40
6.832275655654356
 40
7.357721364783625
 40
7.630039806221114
 40
7.773258421325667
 40
7.924036767188288
 40
8.063680185321329
 40
8.18916759717419
 40
8.318116867733216
 40
8.364345925154346
 40
8.535244194624642
 40
8.898867403916275
 40
9.087316572181109
 40
9.592815840029217
 40
9.886094264702039
 40
10.03097898670521
 40
10.23519779726044
 40
10.3240122956445
 40
10.49800595990965
 40
10.86852015849583
 40
11.14863073673784
 40
11.86080921845022
 40
12.38166675091015
 40
12.99343928387511
 40
13.68038265600534
 40
14.41801917226451
 40
15.37032091972397
 40
15.89017479381548
 40
16.17891645818512
 40
16.3382539579687
 40
16.3382539579687
 40
16.3382539579687
 40
16.84568443452987
 40
17.46405586908813
 40
18.06646434985841
 40
18.96327359862546
 40
19.49143470759717
 40
19.73210167755546
 40
20.09413150418672
 40
20.60744730710893
 40
21.73103360627994
 40
22.45196870923988
 40
22.99125670061422
 40
24.01328338859633
 40
24.76699916742607
 40
25.30062463652229
 40
25.64621849252595
 40
26.22059626530169
 40
26.413104195184
 40
26.413104195184
 40
26.413104195184
 40
26.98143694705485
 40
27.94643119430829
 40
29.05905336827375
 40
29.50923097758641
 40
29.86275626579721
 40
30.12296149093022
 40
30.41153121442683
 40
30.85709476206672
 40
31.27618581847427
 40
31.50157443837005
 40
31.76832778476261
 40
32.142851083936
 40
32.6006958002083
 40
33.15226139932679
 40
33.59531141460938
 40
33.83844589815489
 40
34.59475570005601
 40
35.22389559786871
 40
36.02611373899101
 40
36.44638564275579
 40
36.44638564275579
 40
36.44638564275579
 40
37.28954514152146
 40
38.72494628837364
 40
39.49466949718684
 40
40.07124246455367
 40
40.56484653029567
 40
40.86573130691323
 40
41.5177381192115
 40
42.29112405497708
 40
42.77824101631376
 40
43.20815178663204
 40
43.74309571746096
 40
44.33230757112887
 40
44.81028891676547
 40
45.45690898778141
 40
45.45690898778141
 40
45.45690898778141
 40
45.45690898778141
 10
48.95216113236218
 20
77.59502937876755
 30
0.0
 10
49.02991686273569
 20
77.49466298411556
 30
0.0
 10
49.18280987980172
 20
77.29731005827114
 30
0.0
 10
49.39257806120043
 20
76.97975320760789
 30
0.0
 10
49.51589957821195
 20
76.55732327561924
 30
0.0
 10
49.48743742629904
 20
76.16140690810834
 30
0.0
 10
49.41933698800056
 20
75.8739232262701
 30
0.0
 10
49.36779544546225
 20
75.6482121319819
 30
0.0
 10
49.41206496772685
 20
75.4684568878356
 30
0.0
 10
49.43119454729526
 20
75.29356043777079
 30
0.0
 10
49.44947813731537
 20
75.23270966398825
 30
0.0
 10
49.4455934891011
 20
75.16385444197027
 30
0.0
 10
49.50497729761122
 20
75.18121897829295
 30
0.0
 10
49.54811821240621
 20
75.10452582783568
 30
0.0
 10
49.59826658047655
 20
74.95130505342308
 30
0.0
 10
49.63240121552797
 20
74.57412508366968
 30
0.0
 10
49.64172436067608
 20
74.16571311133941
 30
0.0
 10
49.60305816674452
 20
73.8304001527733
 30
0.0
 10
49.60443873548072
 20
73.59342933616375
 30
0.0
 10
49.74753141648247
 20
73.43942339434241
 30
0.0
 10
49.88028561876729
 20
73.24979454982522
 30
0.0
 10
49.97721498833822
 20
73.1162725738233
 30
0.0
 10
50.07016424028996
 20
72.95753282384314
 30
0.0
 10
49.99178894575371
 20
72.82070842556809
 30
0.0
 10
49.85707251556299
 20
72.645943932453
 30
0.0
 10
50.00233664562706
 20
72.22911578630396
 30
0.0
 10
50.01356814507433
 20
71.72261701657721
 30
0.0
 10
50.28296188857559
 20
71.19678121322777
 30
0.0
 10
50.30621754059314
 20
70.73947327180824
 30
0.0
 10
50.40988829487549
 20
70.45264927247604
 30
0.0
 10
50.47867956335455
 20
70.25857333130892
 30
0.0
 10
50.38489759260442
 20
70.14061824672961
 30
0.0
 10
50.36274524249259
 20
69.97291494031031
 30
0.0
 10
50.503918078892
 20
69.92385331771655
 30
0.0
 10
50.60990779308018
 20
69.90174639292911
 30
0.0
 10
50.65570069839901
 20
69.78563378526573
 30
0.0
 10
50.50644417300751
 20
69.61597594265498
 30
0.0
 10
50.54449958262658
 20
69.35902324533486
 30
0.0
 10
50.341060111128
 20
69.05761975841727
 30
0.0
 10
50.36681448297073
 20
68.69693494421079
 30
0.0
 10
50.41548488040719
 20
68.41124273008865
 30
0.0
 10
50.39575561431078
 20
68.15468241042728
 30
0.0
 10
50.21106404362612
 20
68.18276371849439
 30
0.0
 10
50.06690154287337
 20
68.0726565434881
 30
0.0
 10
50.24658309499812
 20
67.8607654638041
 30
0.0
 10
50.4071535620609
 20
67.67701617039965
 30
0.0
 10
50.51441051421325
 20
67.20330623285987
 30
0.0
 10
50.24792760106393
 20
66.74314231573491
 30
0.0
 10
49.99559950793491
 20
66.17270767608554
 30
0.0
 10
50.09779698862567
 20
65.54839322391678
 30
0.0
 10
50.22768873369179
 20
64.85633225970324
 30
0.0
 10
50.11493412775187
 20
64.18029038721417
 30
0.0
 10
49.89322758902066
 20
63.52164178054092
 30
0.0
 10
49.39594513503078
 20
63.14403624140377
 30
0.0
 10
49.08444085452643
 20
63.04879622015142
 30
0.0
 10
48.9351563739067
 20
63.03860296306949
 30
0.0
 10
48.88207062968696
 20
63.03497822836182
 30
0.0
 10
48.87113084596575
 20
63.20288489033703
 30
0.0
 10
48.84685948271609
 20
63.57540812193798
 30
0.0
 10
48.66390141374499
 20
64.15503821850641
 30
0.0
 10
48.05367766688616
 20
64.56356687140348
 30
0.0
 10
47.44987096702456
 20
64.84704512596846
 30
0.0
 10
46.99021321447131
 20
65.1720194193682
 30
0.0
 10
46.78234823243265
 20
65.50781370070684
 30
0.0
 10
46.3754744165204
 20
65.5565962102819
 30
0.0
 10
45.93868190037862
 20
66.11450484777664
 30
0.0
 10
45.71297965351688
 20
66.86450299750234
 30
0.0
 10
45.05573042106408
 20
67.42382599256913
 30
0.0
 10
45.07029312754498
 20
68.22620877354506
 30
0.0
 10
44.66559219472922
 20
68.91780090447992
 30
0.0
 10
44.76398730983335
 20
69.72402532742387
 30
0.0
 10
44.43937726295922
 20
70.20606735962832
 30
0.0
 10
44.50161339450052
 20
70.70445042911479
 30
0.0
 10
44.62562451093489
 20
71.05149747852272
 30
0.0
 10
44.71782568551454
 20
71.29008107631475
 30
0.0
 10
44.7409705390299
 20
71.34997166282016
 30
0.0
 10
44.5911921675163
 20
71.47555842025642
 30
0.0
 10
44.18709928324966
 20
71.81438380956499
 30
0.0
 10
44.13209256896166
 20
72.76020974587737
 30
0.0
 10
44.16983612644897
 20
73.62898675809899
 30
0.0
 10
44.75040373463239
 20
74.11150332905015
 30
0.0
 10
44.58052385032138
 20
74.45920868032263
 30
0.0
 10
44.4997990951781
 20
74.79250615829101
 30
0.0
 10
44.86466668318503
 20
74.96381081715529
 30
0.0
 10
44.85522611059765
 20
75.39804853085005
 30
0.0
 10
44.92091781893122
 20
75.73554716544743
 30
0.0
 10
45.06916104950581
 20
76.03938921249412
 30
0.0
 10
44.85054174635422
 20
76.27731715083797
 30
0.0
 10
44.83849939133652
 20
76.70217838669365
 30
0.0
 10
45.28443210667473
 20
76.94645879750197
 30
0.0
 10
45.48085323422211
 20
77.42847030954891
 30
0.0
 10
45.44068929802195
 20
77.83740416086238
 30
0.0
 10
45.40544513557513
 20
78.33193620047063
 30
0.0
 10
45.8740677758274
 20
78.72903717463185
 30
0.0
 10
46.34132900431018
 20
79.27656452044345
 30
0.0
 10
46.94195736201357
 20
79.49899603893965
 30
0.0
 10
47.31868026817437
 20
79.64908821607841
 30
0.0
 10
47.44819138658892
 20
79.70068742974081
 30
0.0
 10
47.50795124161195
 20
79.97546364440456
 30
0.0
 10
47.66944672857806
 20
80.7180209778642
 30
0.0
 10
47.92735086198095
 20
81.69780880824424
 30
0.0
 10
48.48959116320185
 20
82.50546800980387
 30
0.0
 10
49.13193467887696
 20
82.64889693668681
 30
0.0
 10
49.60418463428746
 20
82.41138398245633
 30
0.0
 10
49.68913925914101
 20
81.90504197177459
 30
0.0
 10
49.48928420696664
 20
81.35446565225093
 30
0.0
 10
49.24958695269612
 20
80.76729650978263
 30
0.0
 10
49.02225710484315
 20
80.25125088355418
 30
0.0
 10
48.88707445200257
 20
79.78249327210332
 30
0.0
 10
48.90761632796494
 20
79.25423825667784
 30
0.0
 10
49.0696389269077
 20
78.7451307105081
 30
0.0
 10
49.12213168930124
 20
78.16654783354772
 30
0.0
 10
49.01421230685601
 20
77.80367369930556
 30
0.0
 10
48.95216113236218
 20
77.59502937876755
 30
0.0
  0
SPLINE
  5
104A9
330
1F
100
AcDbEntity
  8
0
100
AcDbSpline
210
0.0
220
0.0
230
1.0
 70
     9
 71
     3
 72
    41
 73
    37
 74
     0
 42
0.000000001
 43
0.0000000001
 40
0.0
 40
0.0
 40
0.0
 40
0.0
 40
0.0791874353992677
 40
0.1941945943608023
 40
0.3176273329265767
 40
0.4633071999323403
 40
0.5820427846218756
 40
0.685982998766299
 40
0.685982998766299
 40
0.685982998766299
 40
0.9269411896575219
 40
1.085528999055646
 40
1.282785865174421
 40
1.395834230281089
 40
1.484454856870987
 40
1.5330251715868
 40
1.5330251715868
 40
1.5330251715868
 40
1.58254835720419
 40
1.721293745935024
 40
1.938706603391253
 40
2.158382530553887
 40
2.279337245904033
 40
2.339837536191486
 40
2.339837536191486
 40
2.339837536191486
 40
2.645516222367843
 40
3.115721687615581
 40
3.410569236622832
 40
3.590247770343938
 40
3.654447699818038
 40
3.79604642612867
 40
3.962501503300389
 40
4.107598910667144
 40
4.329962826130587
 40
4.397897059975823
 40
4.397897059975823
 40
4.397897059975823
 40
4.397897059975823
 10
47.14383299274063
 20
78.64415590007908
 30
0.0
 10
47.12769312090607
 20
78.62324234709692
 30
0.0
 10
47.08811265150271
 20
78.5719551837036
 30
0.0
 10
47.00714972498646
 20
78.50175494243135
 30
0.0
 10
46.89106645190091
 20
78.44509197575177
 30
0.0
 10
46.76199196537999
 20
78.41904621804698
 30
0.0
 10
46.66462930733579
 20
78.33768580239234
 30
0.0
 10
46.62322265179804
 20
78.27606220815988
 30
0.0
 10
46.60389492662029
 20
78.24729765622198
 30
0.0
 10
46.68444607381445
 20
78.24822865234927
 30
0.0
 10
46.81801235168656
 20
78.2497723881217
 30
0.0
 10
47.01283294090697
 20
78.30080108364237
 30
0.0
 10
47.15821464766196
 20
78.33826567915221
 30
0.0
 10
47.28727144957318
 20
78.4178744180193
 30
0.0
 10
47.27373737155612
 20
78.51327204764022
 30
0.0
 10
47.24916267592951
 20
78.55138103526991
 30
0.0
 10
47.24046238792749
 20
78.56487292843033
 30
0.0
 10
47.25502505825696
 20
78.57261322623623
 30
0.0
 10
47.31038686803166
 20
78.60203893491905
 30
0.0
 10
47.43597569410913
 20
78.65666857477887
 30
0.0
 10
47.55518882787834
 20
78.82281200210792
 30
0.0
 10
47.58385506622319
 20
79.01031785677066
 30
0.0
 10
47.57491570037058
 20
79.14423809191333
 30
0.0
 10
47.56261479744992
 20
79.20349526926102
 30
0.0
 10
47.55851346006944
 20
79.22325265439656
 30
0.0
 10
47.46949014966658
 20
79.1730209436364
 30
0.0
 10
47.2435281223074
 20
79.04552108826454
 30
0.0
 10
46.91353422388388
 20
78.9204262591058
 30
0.0
 10
46.60780756727109
 20
78.80444785630544
 30
0.0
 10
46.48168809189252
 20
78.69480489418831
 30
0.0
 10
46.39651106253291
 20
78.56029136957918
 30
0.0
 10
46.59672294647464
 20
78.55637637788888
 30
0.0
 10
46.72260734116615
 20
78.58018658104635
 30
0.0
 10
46.87284404866871
 20
78.70319005715515
 30
0.0
 10
47.02854070561663
 20
78.67134793922961
 30
0.0
 10
47.12196927085964
 20
78.64931252587073
 30
0.0
 10
47.14383299274063
 20
78.64415590007905
 30
0.0
  0
SPLINE
  5
104AE
330
1F
100
AcDbEntity
  8
0
100
AcDbSpline
210
0.0
220
0.0
230
1.0
 70
     9
 71
     3
 72
    48
 73
    44
 74
     0
 42
0.000000001
 43
0.0000000001
 40
0.0
 40
0.0
 40
0.0
 40
0.0
 40
0.3135927691910621
 40
0.9812790668527552
 40
1.472151041528285
 40
1.909799139931505
 40
2.181307959224824
 40
2.181307959224824
 40
2.181307959224824
 40
2.329870721435208
 40
2.5322432542764
 40
2.667094352219161
 40
2.767283093929133
 40
2.767283093929133
 40
2.767283093929133
 40
2.90106214490915
 40
3.125257545956245
 40
3.492902772961449
 40
3.812387853831499
 40
4.166614987543793
 40
4.166614987543793
 40
4.166614987543793
 40
4.301875694256485
 40
4.483145968962539
 40
4.701008968624293
 40
5.116376554770662
 40
5.504575828690968
 40
5.933638704471851
 40
6.216106039984886
 40
6.369840926089526
 40
6.528830017213557
 40
6.8064621018187
 40
7.091804346545369
 40
7.393927337472703
 40
7.572523955383505
 40
7.685976017463136
 40
7.685976017463136
 40
7.685976017463136
 40
7.90901252642805
 40
8.3858611962719
 40
9.006626559531547
 40
9.469347631091395
 40
9.794302494852475
 40
9.794302494852475
 40
9.794302494852475
 40
9.794302494852475
 10
47.46927467495331
 20
78.13551710051808
 30
0.0
 10
47.46411545757685
 20
78.03158964249885
 30
0.0
 10
47.44797148835867
 20
77.70638495334558
 30
0.0
 10
47.40559861249272
 20
77.19845394223495
 30
0.0
 10
47.09168101518183
 20
76.76181529620527
 30
0.0
 10
46.78626299137941
 20
76.46850194480075
 30
0.0
 10
46.54583660701455
 20
76.44669211555594
 30
0.0
 10
46.45378662186046
 20
76.4383419735218
 30
0.0
 10
46.48021786308412
 20
76.48161636403333
 30
0.0
 10
46.54265380126537
 20
76.58383922780078
 30
0.0
 10
46.69655568677639
 20
76.64694495474503
 30
0.0
 10
46.83033940550436
 20
76.71916966908097
 30
0.0
 10
46.86208788452953
 20
76.79295467338258
 30
0.0
 10
46.87562108030364
 20
76.82440647640015
 30
0.0
 10
46.83049248802771
 20
76.82703384895924
 30
0.0
 10
46.70973454444549
 20
76.83406433874989
 30
0.0
 10
46.48833557996683
 20
76.7187357074834
 30
0.0
 10
46.18666248539258
 20
76.66747767674917
 30
0.0
 10
45.89176754306584
 20
76.46201804643386
 30
0.0
 10
45.7680452752966
 20
76.27309993818167
 30
0.0
 10
45.7029940808256
 20
76.17376981094924
 30
0.0
 10
45.68109973831233
 20
76.21337701507065
 30
0.0
 10
45.62986358931033
 20
76.30606400079244
 30
0.0
 10
45.61952640087068
 20
76.49614948054957
 30
0.0
 10
45.77800761518363
 20
76.72847811538719
 30
0.0
 10
46.04192903823386
 20
76.95496268214935
 30
0.0
 10
46.43638810428811
 20
77.0780241485252
 30
0.0
 10
46.75525080137364
 20
77.28693175000831
 30
0.0
 10
46.98194771274507
 20
77.41204378933327
 30
0.0
 10
47.11248643746574
 20
77.66990092190494
 30
0.0
 10
46.82523309996372
 20
77.62231881673509
 30
0.0
 10
46.67463722440664
 20
77.47137389510436
 30
0.0
 10
46.41327953175433
 20
77.31960509736243
 30
0.0
 10
46.16409951292846
 20
77.26507738647171
 30
0.0
 10
45.99454968944775
 20
77.14975568681592
 30
0.0
 10
45.94167015295953
 20
77.06738498245326
 30
0.0
 10
45.9211280554688
 20
77.03538645992887
 30
0.0
 10
45.90442091276182
 20
77.11087862327977
 30
0.0
 10
45.85199415260892
 20
77.34777188569106
 30
0.0
 10
46.21408068556628
 20
77.70409102587655
 30
0.0
 10
46.6431836188821
 20
77.96273362414502
 30
0.0
 10
47.09840236191276
 20
78.11543652291485
 30
0.0
 10
47.36095773634558
 20
78.12965236860486
 30
0.0
 10
47.46927467495282
 20
78.13551710052355
 30
0.0
  0
SPLINE
  5
104B1
330
1F
100
AcDbEntity
  8
0
100
AcDbSpline
210
0.0
220
0.0
230
1.0
 70
     9
 71
     3
 72
    21
 73
    17
 74
     0
 42
0.000000001
 43
0.0000000001
 40
0.0
 40
0.0
 40
0.0
 40
0.0
 40
0.6603965835744626
 40
1.387557137153691
 40
1.899499964354224
 40
2.488175346250922
 40
2.488175346250922
 40
2.488175346250922
 40
3.284984161609414
 40
4.042509445953073
 40
4.468716491947853
 40
4.599769002342554
 40
4.599769002342554
 40
4.599769002342554
 40
4.860107692927353
 40
5.081504572221633
 40
5.081504572221633
 40
5.081504572221633
 40
5.081504572221633
 10
47.07580732285727
 20
76.44913571450058
 30
0.0
 10
46.87789917465898
 20
76.35549148929439
 30
0.0
 10
46.46207500117967
 20
76.15873590898122
 30
0.0
 10
45.88200103178057
 20
75.86206588085833
 30
0.0
 10
45.54760094972694
 20
75.32887535914946
 30
0.0
 10
45.46068599010306
 20
74.97159384290958
 30
0.0
 10
45.41419875535969
 20
74.7804986645101
 30
0.0
 10
45.59564731599325
 20
74.97530285680074
 30
0.0
 10
45.9495988281985
 20
75.35530718532474
 30
0.0
 10
46.49000331505101
 20
75.74089524606694
 30
0.0
 10
46.89245104836095
 20
75.92929678272316
 30
0.0
 10
47.07564820813355
 20
75.96169668654821
 30
0.0
 10
47.11873126953664
 20
75.96931627545274
 30
0.0
 10
47.11099897491144
 20
76.05575066829485
 30
0.0
 10
47.09669099268498
 20
76.21569048131078
 30
0.0
 10
47.08238301045851
 20
76.37563029432675
 30
0.0
 10
47.07580732285727
 20
76.44913571450058
 30
0.0
  0
SPLINE
  5
104B5
330
1F
100
AcDbEntity
  8
0
100
AcDbSpline
210
0.0
220
0.0
230
1.0
 70
     9
 71
     3
 72
    32
 73
    28
 74
     0
 42
0.000000001
 43
0.0000000001
 40
0.0
 40
0.0
 40
0.0
 40
0.0
 40
0.2537565323772255
 40
0.5899998210706712
 40
0.5899998210706712
 40
0.5899998210706712
 40
0.8065154169361939
 40
1.356589311223736
 40
1.734592635370889
 40
2.141793812441597
 40
2.542420548545437
 40
2.979757526084944
 40
3.221709741776335
 40
3.34137208715447
 40
3.34137208715447
 40
3.34137208715447
 40
3.858246732052656
 40
4.284893290212898
 40
4.284893290212898
 40
4.284893290212898
 40
4.423916058496611
 40
4.764866229086958
 40
5.430398861022347
 40
5.892743683051017
 40
6.264093579826281
 40
6.946509247643946
 40
7.338395039620646
 40
7.338395039620646
 40
7.338395039620646
 40
7.338395039620646
 10
44.91370285702017
 20
73.65839015839106
 30
0.0
 10
44.91476567885217
 20
73.57380225148617
 30
0.0
 10
44.91723680613641
 20
73.37713007335108
 30
0.0
 10
44.92815626975654
 20
73.18073723409174
 30
0.0
 10
44.93437931631906
 20
73.06881215921873
 30
0.0
 10
44.96639927507579
 20
73.13352589733861
 30
0.0
 10
45.07976830865469
 20
73.36264967621883
 30
0.0
 10
45.29546929943243
 20
73.67950135820652
 30
0.0
 10
45.60995130338695
 20
74.0026635775373
 30
0.0
 10
45.98567431849424
 20
74.15885127523456
 30
0.0
 10
46.23827418420532
 20
74.50314190448705
 30
0.0
 10
46.56353753084497
 20
74.67603400037927
 30
0.0
 10
46.81387872192426
 20
74.76561612867397
 30
0.0
 10
46.92995950457244
 20
74.79829937376135
 30
0.0
 10
46.96837194754465
 20
74.80911462896057
 30
0.0
 10
46.98668381472169
 20
74.9804302824657
 30
0.0
 10
47.02011094278775
 20
75.29315591738202
 30
0.0
 10
47.05353807085382
 20
75.60588155229829
 30
0.0
 10
47.06865333174285
 20
75.74729153370942
 30
0.0
 10
47.02414931101898
 20
75.73406147435668
 30
0.0
 10
46.87050019381145
 20
75.68838499598249
 30
0.0
 10
46.53884193644316
 20
75.49176415291708
 30
0.0
 10
46.14656670096609
 20
75.19928280400669
 30
0.0
 10
45.80215479469297
 20
74.82786709013936
 30
0.0
 10
45.58968417110174
 20
74.3633881048971
 30
0.0
 10
45.23680450652608
 20
74.02388200699909
 30
0.0
 10
45.00006218503415
 20
73.7560796331698
 30
0.0
 10
44.91370285702017
 20
73.65839015839106
 30
0.0
  0
SPLINE
  5
104BA
330
1F
100
AcDbEntity
  8
0
100
AcDbSpline
210
0.0
220
0.0
230
1.0
 70
     9
 71
     3
 72
    31
 73
    27
 74
     0
 42
0.000000001
 43
0.0000000001
 40
0.0
 40
0.0
 40
0.0
 40
0.0
 40
0.166413931212976
 40
0.6671188022714057
 40
1.459159735949223
 40
1.892683731342825
 40
1.892683731342825
 40
1.892683731342825
 40
2.189436631565676
 40
2.996765006849519
 40
3.657563226745009
 40
4.050460505679677
 40
4.27133346313804
 40
4.27133346313804
 40
4.27133346313804
 40
4.669195256263037
 40
4.885420131068815
 40
4.976508348002131
 40
4.976508348002131
 40
4.976508348002131
 40
5.510338203648453
 40
5.944611990460212
 40
6.217573114337668
 40
6.217573114337668
 40
6.217573114337668
 40
6.35530685512746
 40
6.35530685512746
 40
6.35530685512746
 40
6.35530685512746
 10
46.10173495392202
 20
73.49139966936206
 30
0.0
 10
46.07697722359913
 20
73.44166375753778
 30
0.0
 10
45.9777286373806
 20
73.24228284222463
 30
0.0
 10
45.67167956699086
 20
72.86163293294584
 30
0.0
 10
45.46786517041032
 20
72.29820008630125
 30
0.0
 10
45.47587635541108
 20
71.88867917391658
 30
0.0
 10
45.47871018399656
 20
71.74381769989515
 30
0.0
 10
45.54666514235765
 20
71.81707632192644
 30
0.0
 10
45.79949433812283
 20
72.08963801481442
 30
0.0
 10
45.9229430534195
 20
72.68439072699184
 30
0.0
 10
46.27036279758877
 20
73.22895092582098
 30
0.0
 10
46.65955201971257
 20
73.43002294661591
 30
0.0
 10
46.86034434301662
 20
73.46989663043271
 30
0.0
 10
46.93260199197614
 20
73.48424567824759
 30
0.0
 10
46.94724796643316
 20
73.61598942648925
 30
0.0
 10
46.96985354909611
 20
73.81933159398665
 30
0.0
 10
46.99714874756383
 20
74.0532252258642
 30
0.0
 10
46.99702468453068
 20
74.15571244242855
 30
0.0
 10
46.99698791199877
 20
74.18608985903157
 30
0.0
 10
46.8391086904495
 20
74.10527090922639
 30
0.0
 10
46.55279377599939
 20
73.95870525940657
 30
0.0
 10
46.18374347704961
 20
73.75867063422259
 30
0.0
 10
46.02640806431543
 20
73.58131356070444
 30
0.0
 10
45.9656836141553
 20
73.51286164270175
 30
0.0
 10
46.01103406074421
 20
73.50570765158852
 30
0.0
 10
46.05638450733311
 20
73.49855366047529
 30
0.0
 10
46.10173495392202
 20
73.49139966936206
 30
0.0
  0
SPLINE
  5
104BC
330
1F
100
AcDbEntity
  8
0
100
AcDbSpline
210
0.0
220
0.0
230
1.0
 70
    11
 71
     3
 72
    22
 73
    18
 74
     0
 42
0.000000001
 43
0.0000000001
 40
0.0
 40
0.0
 40
0.0
 40
0.0
 40
0.078069898284358
 40
0.2732257910416642
 40
0.5330222830563752
 40
0.7127293648697504
 40
0.8465892099085692
 40
0.9280086758660628
 40
0.9280086758660628
 40
0.9280086758660628
 40
1.208720239131323
 40
1.547253306697989
 40
1.695039879199377
 40
1.78906473838778
 40
1.835918951529124
 40
1.91059568364056
 40
1.964673131514856
 40
1.964673131514856
 40
1.964673131514856
 40
1.964673131514856
 10
46.6421481685075
 20
72.81521619602222
 30
0.0
 10
46.61593227057003
 20
72.81272654173736
 30
0.0
 10
46.53325651511228
 20
72.78639499081538
 30
0.0
 10
46.40244506513693
 20
72.64910447565199
 30
0.0
 10
46.29487486944883
 20
72.47079174539755
 30
0.0
 10
46.20043058104338
 20
72.30359359404264
 30
0.0
 10
46.175332649872
 20
72.16881015115942
 30
0.0
 10
46.19578665707734
 20
72.09940253611478
 30
0.0
 10
46.2035224415131
 20
72.07315230833319
 30
0.0
 10
46.25346275080869
 20
72.15235537463439
 30
0.0
 10
46.36363016975522
 20
72.32707590620762
 30
0.0
 10
46.51972855376437
 20
72.52957162017665
 30
0.0
 10
46.66540511806013
 20
72.66193637083308
 30
0.0
 10
46.74253685238759
 20
72.71264837928322
 30
0.0
 10
46.78251628079822
 20
72.79068104105698
 30
0.0
 10
46.7065048495916
 20
72.81529578324452
 30
0.0
 10
46.66030739357817
 20
72.81694072945666
 30
0.0
 10
46.6421481685075
 20
72.81521619602222
 30
0.0
  0
SPLINE
  5
104C0
330
1F
100
AcDbEntity
  8
0
100
AcDbSpline
210
0.0
220
0.0
230
1.0
 70
     9
 71
     3
 72
    37
 73
    33
 74
     0
 42
0.000000001
 43
0.0000000001
 40
0.0
 40
0.0
 40
0.0
 40
0.0
 40
0.1895811666343352
 40
0.6257523145622495
 40
1.311659000516768
 40
2.015615126815421
 40
2.596579736232627
 40
3.242757480594972
 40
3.581518156263844
 40
3.581518156263844
 40
3.581518156263844
 40
3.67534760786559
 40
3.894570710470672
 40
4.04009999691654
 40
4.189799385256695
 40
4.329802765146018
 40
4.384631742646009
 40
4.384631742646009
 40
4.384631742646009
 40
4.448282840834891
 40
4.627789040695746
 40
4.832404752150021
 40
4.914187587033781
 40
4.914187587033781
 40
4.914187587033781
 40
5.22066318251533
 40
5.749737678110502
 40
6.364369690225639
 40
6.883896286049171
 40
7.722954971089763
 40
8.057811615925105
 40
8.193085487987818
 40
8.193085487987818
 40
8.193085487987818
 40
8.193085487987818
 10
46.8180126255527
 20
72.38842995177083
 30
0.0
 10
46.78637449399632
 20
72.33371961275873
 30
0.0
 10
46.68194621981011
 20
72.15313668949119
 30
0.0
 10
46.41865886321986
 20
71.80110598961022
 30
0.0
 10
45.98715113409471
 20
71.37496834538933
 30
0.0
 10
45.49613323359831
 20
70.91928505646075
 30
0.0
 10
45.25722075324122
 20
70.31197221205556
 30
0.0
 10
45.22014129865199
 20
69.75679946820013
 30
0.0
 10
45.39124473698082
 20
69.47147220486343
 30
0.0
 10
45.45009421954616
 20
69.37333646911702
 30
0.0
 10
45.47466754074295
 20
69.39292672416311
 30
0.0
 10
45.55665396204945
 20
69.45828764512395
 30
0.0
 10
45.62115355257361
 20
69.6088489976087
 30
0.0
 10
45.60564411437948
 20
69.78923894154636
 30
0.0
 10
45.72339119401172
 20
69.89683230205783
 30
0.0
 10
45.82647019603546
 20
69.9451318692665
 30
0.0
 10
45.88917416258526
 20
69.96258317701623
 30
0.0
 10
45.9068200732399
 20
69.96749425735618
 30
0.0
 10
45.91386974388368
 20
69.9472138726569
 30
0.0
 10
45.94080060469609
 20
69.8697395841183
 30
0.0
 10
45.89619014070314
 20
69.71858617065175
 30
0.0
 10
45.87599273835509
 20
69.56690774381536
 30
0.0
 10
45.86101820414613
 20
69.4724709268508
 30
0.0
 10
45.8567421354498
 20
69.44550392332542
 30
0.0
 10
45.93247685455962
 20
69.51730158296754
 30
0.0
 10
46.1389538216749
 20
69.71304487195218
 30
0.0
 10
46.18509470486015
 20
70.23609350764591
 30
0.0
 10
46.60788272621326
 20
70.62152192333897
 30
0.0
 10
46.98614268669959
 20
71.18259024038704
 30
0.0
 10
46.95101545645028
 20
71.76915873818845
 30
0.0
 10
46.92749942392717
 20
72.21651702603182
 30
0.0
 10
46.84247677451814
 20
72.35001707015584
 30
0.0
 10
46.8180126255527
 20
72.38842995177083
 30
0.0
  0
SPLINE
  5
104C2
330
1F
100
AcDbEntity
  8
0
100
AcDbSpline
210
0.0
220
0.0
230
1.0
 70
     9
 71
     3
 72
    27
 73
    23
 74
     0
 42
0.000000001
 43
0.0000000001
 40
0.0
 40
0.0
 40
0.0
 40
0.0
 40
0.1755036036808691
 40
0.3869580898911441
 40
0.5854087356527331
 40
0.7762042244882301
 40
0.9223300188793642
 40
1.219241367649001
 40
1.415640600304123
 40
1.764849412688575
 40
2.242112886658211
 40
2.642981050745528
 40
2.91556430777292
 40
2.91556430777292
 40
2.91556430777292
 40
3.542993101581041
 40
4.127874577681921
 40
4.701772698129592
 40
5.217152783275899
 40
5.481283073494513
 40
5.595957846066209
 40
5.694792291787788
 40
5.694792291787788
 40
5.694792291787788
 40
5.694792291787788
 10
46.93260199197614
 20
70.23269396300737
 30
0.0
 10
46.9432649690075
 20
70.17504503605682
 30
0.0
 10
46.96677517129437
 20
70.04793813802632
 30
0.0
 10
47.05026653480828
 20
69.86828903307312
 30
0.0
 10
47.09689835909407
 20
69.67875155129693
 30
0.0
 10
47.07458417527408
 20
69.47131469075227
 30
0.0
 10
46.85884552170534
 20
69.39955510826852
 30
0.0
 10
46.63639886085786
 20
69.34773882262608
 30
0.0
 10
46.52205534814791
 20
69.07238462781329
 30
0.0
 10
46.26857189602929
 20
68.83995316104879
 30
0.0
 10
46.10899108442697
 20
68.45174808296954
 30
0.0
 10
45.99959460162767
 20
68.08570225488839
 30
0.0
 10
45.95508369140065
 20
67.86540563026041
 30
0.0
 10
45.93706764970479
 20
67.77623933025637
 30
0.0
 10
45.9135998208159
 20
67.98589015490541
 30
0.0
 10
45.86825556780228
 20
68.39097492360773
 30
0.0
 10
46.06476448101247
 20
68.97721588447777
 30
0.0
 10
46.44194764238784
 20
69.39703012826811
 30
0.0
 10
46.63837969916165
 20
69.80426534777492
 30
0.0
 10
46.69627415454243
 20
70.11182510169601
 30
0.0
 10
46.82887319879339
 20
70.21568986217565
 30
0.0
 10
46.89977924267556
 20
70.22731338041734
 30
0.0
 10
46.93260199197614
 20
70.23269396300737
 30
0.0
  0
SPLINE
  5
104C7
330
1F
100
AcDbEntity
  8
0
100
AcDbSpline
210
0.0
220
0.0
230
1.0
 70
     9
 71
     3
 72
    37
 73
    33
 74
     0
 42
0.000000001
 43
0.0000000001
 40
0.0
 40
0.0
 40
0.0
 40
0.0
 40
0.3296260493922663
 40
0.7219723482650467
 40
1.204389645219694
 40
1.920637788728742
 40
2.629364586590056
 40
2.884100236888187
 40
2.884100236888187
 40
2.884100236888187
 40
3.080594788110628
 40
3.080594788110628
 40
3.080594788110628
 40
3.353944764946825
 40
3.642827257161453
 40
3.911217055500674
 40
4.012544909361825
 40
4.012544909361825
 40
4.012544909361825
 40
4.075986230540157
 40
4.165438633210903
 40
4.321630843959994
 40
4.590718924010145
 40
4.973701650632554
 40
5.330451139298782
 40
5.574683764881894
 40
5.574683764881894
 40
5.574683764881894
 40
6.903133586471582
 40
8.449619542096995
 40
9.456085448988378
 40
9.74496850585939
 40
9.74496850585939
 40
9.74496850585939
 40
9.74496850585939
 10
47.20621622080216
 20
69.05143770015611
 30
0.0
 10
47.12626885570213
 20
68.97541132028013
 30
0.0
 10
46.9511619822457
 20
68.80889249050207
 30
0.0
 10
46.71607927858256
 20
68.48816380176924
 30
0.0
 10
46.34240043281907
 20
68.07226063564574
 30
0.0
 10
46.46266822696179
 20
67.38570442648891
 30
0.0
 10
46.57282777862294
 20
66.85138646139535
 30
0.0
 10
46.67611462624073
 20
66.54623396341595
 30
0.0
 10
46.70342325912561
 20
66.46555285315435
 30
0.0
 10
46.75011246428478
 20
66.51148900661707
 30
0.0
 10
46.79680166944395
 20
66.55742516007977
 30
0.0
 10
46.84349087460311
 20
66.60336131354251
 30
0.0
 10
46.90641398556749
 20
66.53775526472569
 30
0.0
 10
47.03583567583916
 20
66.40281524666581
 30
0.0
 10
47.21475271598125
 20
66.18631617772883
 30
0.0
 10
47.28448992088654
 20
65.97542042161453
 30
0.0
 10
47.32559864883469
 20
65.85939220355266
 30
0.0
 10
47.3368652441762
 20
65.82759255792154
 30
0.0
 10
47.35568847612291
 20
65.83686188251738
 30
0.0
 10
47.40105250659634
 20
65.85920097522069
 30
0.0
 10
47.50918287410013
 20
65.88314231433145
 30
0.0
 10
47.64755461130178
 20
65.74754384209068
 30
0.0
 10
47.77327733034872
 20
65.52588684707902
 30
0.0
 10
48.02444083600329
 20
65.24688404612366
 30
0.0
 10
48.38018315412859
 20
65.29260997126228
 30
0.0
 10
48.55601441974776
 20
65.19002809292228
 30
0.0
 10
48.62747034271713
 20
65.14833992801652
 30
0.0
 10
48.41444341112314
 20
65.53742586683151
 30
0.0
 10
47.95342581211665
 20
66.37945773565433
 30
0.0
 10
47.5599045618815
 20
67.62068211790832
 30
0.0
 10
47.38838254594701
 20
68.55530868573215
 30
0.0
 10
47.23943406022303
 20
68.96096909175629
 30
0.0
 10
47.20621622080216
 20
69.05143770015612
 30
0.0
  0
SPLINE
  5
104CA
330
1F
100
AcDbEntity
  8
0
100
AcDbSpline
210
0.0
220
0.0
230
1.0
 70
     9
 71
     3
 72
    19
 73
    15
 74
     0
 42
0.000000001
 43
0.0000000001
 40
0.0
 40
0.0
 40
0.0
 40
0.0
 40
0.0759643587508001
 40
0.1920137624725299
 40
0.2434083732821175
 40
0.2434083732821175
 40
0.2434083732821175
 40
0.5341143633271793
 40
0.8211229750803498
 40
0.8211229750803498
 40
0.8211229750803498
 40
0.9435532737567848
 40
1.26829684448858
 40
1.345652010798433
 40
1.345652010798433
 40
1.345652010798433
 40
1.345652010798433
 10
48.26274230456063
 20
78.38309797875649
 30
0.0
 10
48.27916472521905
 20
78.36307996605381
 30
0.0
 10
48.3206753866843
 20
78.31248079034216
 30
0.0
 10
48.40941756807082
 20
78.29977857329857
 30
0.0
 10
48.46409342712107
 20
78.30896978185823
 30
0.0
 10
48.48087542141591
 20
78.31179089545918
 30
0.0
 10
48.46693984250373
 20
78.40768567610073
 30
0.0
 10
48.43924592597836
 20
78.59825558827279
 30
0.0
 10
48.41213623171137
 20
78.78890948456484
 30
0.0
 10
48.39866813571309
 20
78.88362633944405
 30
0.0
 10
48.37633026961244
 20
78.84913320215261
 30
0.0
 10
48.29474172391309
 20
78.7231478060751
 30
0.0
 10
48.27927852742113
 20
78.5415962448082
 30
0.0
 10
48.26541026129342
 20
78.40867011331323
 30
0.0
 10
48.26274230456063
 20
78.38309797875649
 30
0.0
  0
SPLINE
  5
104CC
330
1F
100
AcDbEntity
  8
0
100
AcDbSpline
210
0.0
220
0.0
230
1.0
 70
     9
 71
     3
 72
    28
 73
    24
 74
     0
 42
0.000000001
 43
0.0000000001
 40
0.0
 40
0.0
 40
0.0
 40
0.0
 40
0.2810731515797046
 40
0.6702612637237094
 40
0.8788418346760417
 40
1.359036802602551
 40
1.529318731208594
 40
1.624119130818918
 40
1.624119130818918
 40
1.624119130818918
 40
1.841769597218954
 40
1.961246038128243
 40
2.283833650199422
 40
2.461238316210498
 40
2.612829781964654
 40
2.888676640125508
 40
3.360748520040303
 40
3.694457006558986
 40
4.041360083830414
 40
4.242051572112419
 40
4.42707672742394
 40
4.822300651637248
 40
5.465746765848832
 40
5.465746765848832
 40
5.465746765848832
 40
5.465746765848832
 10
48.83757176593519
 20
76.04813568631121
 30
0.0
 10
48.85711251312887
 20
76.13836499275357
 30
0.0
 10
48.90371036793832
 20
76.35353036383603
 30
0.0
 10
48.93740251867171
 20
76.67265278367176
 30
0.0
 10
48.69724278300544
 20
76.95548917326485
 30
0.0
 10
48.59935571513898
 20
77.22798892849088
 30
0.0
 10
48.42648306614129
 20
77.41372991832884
 30
0.0
 10
48.34950997090787
 20
77.45759773746499
 30
0.0
 10
48.321982371326
 20
77.47328602122241
 30
0.0
 10
48.38197231395193
 20
77.51365723560269
 30
0.0
 10
48.47489296862203
 20
77.57618971197849
 30
0.0
 10
48.62344588677614
 20
77.75073188015233
 30
0.0
 10
48.58598838209059
 20
77.96480509677246
 30
0.0
 10
48.49943247663199
 20
78.21238746153269
 30
0.0
 10
48.26947899009297
 20
78.14462812663106
 30
0.0
 10
48.01665664485629
 20
77.99010125542574
 30
0.0
 10
47.91059393771212
 20
77.60987036925093
 30
0.0
 10
47.86377364941583
 20
77.23328867682258
 30
0.0
 10
47.82428666765301
 20
76.94779886754052
 30
0.0
 10
47.78462261006329
 20
76.69060936237852
 30
0.0
 10
47.97270169632972
 20
76.48135902532676
 30
0.0
 10
48.35106591890305
 20
76.32931767757279
 30
0.0
 10
48.65147266907832
 20
76.15569393035994
 30
0.0
 10
48.83757176593521
 20
76.04813568631124
 30
0.0
  0
SPLINE
  5
104CF
330
1F
100
AcDbEntity
  8
0
100
AcDbSpline
210
0.0
220
0.0
230
1.0
 70
     9
 71
     3
 72
    33
 73
    29
 74
     0
 42
0.000000001
 43
0.0000000001
 40
0.0
 40
0.0
 40
0.0
 40
0.0
 40
0.2930073938470701
 40
0.6262761965842767
 40
1.010739766976124
 40
1.10470614782347
 40
1.289681319293168
 40
1.756701361719866
 40
1.756701361719866
 40
1.756701361719866
 40
1.917164291300442
 40
2.351458991835255
 40
2.577513116907156
 40
2.674751291453595
 40
2.76583435118994
 40
2.967658321204613
 40
3.550334832389033
 40
3.976189429872794
 40
4.118177712599977
 40
4.118177712599977
 40
4.118177712599977
 40
4.214936451734658
 40
4.280716708784991
 40
4.4412119798958
 40
4.536444599235927
 40
4.615663308263658
 40
4.668038464330164
 40
4.696482464996247
 40
4.696482464996247
 40
4.696482464996247
 40
4.696482464996247
 10
48.76678490649819
 20
75.0297587759216
 30
0.0
 10
48.74826621468431
 20
75.12696382884207
 30
0.0
 10
48.70868422420056
 20
75.33473063647273
 30
0.0
 10
48.52193287343815
 20
75.61365558441193
 30
0.0
 10
48.34343712007778
 20
75.84640336069909
 30
0.0
 10
48.12538543401297
 20
75.89694778620572
 30
0.0
 10
47.89450694827086
 20
75.98938383590897
 30
0.0
 10
47.70290832883353
 20
76.09264820573418
 30
0.0
 10
47.56566745118386
 20
76.16661581983476
 30
0.0
 10
47.54377920666818
 20
76.11741711801929
 30
0.0
 10
47.46265018534491
 20
75.93506158348549
 30
0.0
 10
47.49504799951902
 20
75.64550994398996
 30
0.0
 10
47.54550340429079
 20
75.40661452865089
 30
0.0
 10
47.53913495206719
 20
75.25682506005626
 30
0.0
 10
47.65581303165379
 20
75.17665361142954
 30
0.0
 10
47.91813549894714
 20
75.06759121410087
 30
0.0
 10
48.2931763899263
 20
74.89687333327612
 30
0.0
 10
48.59069406808933
 20
74.65400690458867
 30
0.0
 10
48.74591889689203
 20
74.54565533465765
 30
0.0
 10
48.78473263859139
 20
74.51856218286962
 30
0.0
 10
48.78283844837446
 20
74.55064298953345
 30
0.0
 10
48.77965651587729
 20
74.60453354410851
 30
0.0
 10
48.77324983711925
 20
74.7135911694119
 30
0.0
 10
48.70817491001673
 20
74.80365499145165
 30
0.0
 10
48.6654460016598
 20
74.90885987219505
 30
0.0
 10
48.68390630542581
 20
74.99065681527383
 30
0.0
 10
48.73127796307383
 20
75.02171154143076
 30
0.0
 10
48.75754153895823
 20
75.02766387450501
 30
0.0
 10
48.76678490649819
 20
75.0297587759216
 30
0.0
  0
SPLINE
  5
104D1
330
1F
100
AcDbEntity
  8
0
100
AcDbSpline
210
0.0
220
0.0
230
1.0
 70
     9
 71
     3
 72
    26
 73
    22
 74
     0
 42
0.000000001
 43
0.0000000001
 40
0.0
 40
0.0
 40
0.0
 40
0.0
 40
0.1573941403840994
 40
0.2634771183877621
 40
0.3358109329010904
 40
0.3358109329010904
 40
0.3358109329010904
 40
0.7800771921170318
 40
1.283741822171217
 40
1.638674467387679
 40
1.923348178622006
 40
2.277555132663872
 40
2.430650691654036
 40
2.520544649559481
 40
2.654287279778779
 40
2.935528437796914
 40
3.216407137544193
 40
3.695939713131225
 40
4.050463186665729
 40
4.231460947832011
 40
4.389967675641986
 40
4.389967675641986
 40
4.389967675641986
 40
4.389967675641986
 10
47.46551157559991
 20
74.5435383974594
 30
0.0
 10
47.47036541065628
 20
74.59573394896427
 30
0.0
 10
47.47849070979806
 20
74.6831090791286
 30
0.0
 10
47.49665617018897
 20
74.79416420203626
 30
0.0
 10
47.51771860440761
 20
74.84990003438162
 30
0.0
 10
47.52625774575456
 20
74.87249648005104
 30
0.0
 10
47.65726900641712
 20
74.80359440955471
 30
0.0
 10
47.9368077250302
 20
74.65657806608209
 30
0.0
 10
48.33789003574551
 20
74.48449534471729
 30
0.0
 10
48.71462354652317
 20
74.41013572660796
 30
0.0
 10
48.98992745709326
 20
74.18793873800581
 30
0.0
 10
49.03623475534731
 20
73.91633128693161
 30
0.0
 10
49.08922123608167
 20
73.7239052411752
 30
0.0
 10
48.98106534969937
 20
73.58643718980278
 30
0.0
 10
48.90186267199783
 20
73.82478922819581
 30
0.0
 10
48.78865723166626
 20
73.97879694048771
 30
0.0
 10
48.53348805803768
 20
74.24475624766123
 30
0.0
 10
48.17160555163252
 20
74.35335639116335
 30
0.0
 10
47.85501053312951
 20
74.46781964894398
 30
0.0
 10
47.63162340817561
 20
74.53290237794027
 30
0.0
 10
47.51838155552128
 20
74.54015317119524
 30
0.0
 10
47.46551157559993
 20
74.54353839745937
 30
0.0
  0
SPLINE
  5
104D5
330
1F
100
AcDbEntity
  8
0
100
AcDbSpline
210
0.0
220
0.0
230
1.0
 70
     9
 71
     3
 72
    33
 73
    29
 74
     0
 42
0.000000001
 43
0.0000000001
 40
0.0
 40
0.0
 40
0.0
 40
0.0
 40
0.3007916576010246
 40
0.6350100127861947
 40
1.114530367740828
 40
1.3820996430455
 40
1.526782275255344
 40
1.526782275255344
 40
1.526782275255344
 40
1.722157770355995
 40
2.072683573370813
 40
2.216740227433262
 40
2.216740227433262
 40
2.216740227433262
 40
2.272247676488873
 40
2.428569858648011
 40
2.646547856839993
 40
2.747581096500541
 40
2.747581096500541
 40
2.747581096500541
 40
2.906778136832139
 40
3.035541243515442
 40
3.141710266496088
 40
3.30649747899354
 40
3.500662935272881
 40
3.779730306985843
 40
4.00383624031326
 40
4.102748447468554
 40
4.102748447468554
 40
4.102748447468554
 40
4.102748447468554
 10
48.75611667413727
 20
73.39952736243541
 30
0.0
 10
48.72312944426814
 20
73.49684609775616
 30
0.0
 10
48.65348914430754
 20
73.70229850908049
 30
0.0
 10
48.32797904003277
 20
73.91939845332621
 30
0.0
 10
47.9846821546089
 20
74.02514884226912
 30
0.0
 10
47.69261420959629
 20
74.08410596973988
 30
0.0
 10
47.55628218176492
 20
74.10134559289383
 30
0.0
 10
47.50843552227929
 20
74.10739595678728
 30
0.0
 10
47.50911078785203
 20
74.04227429267269
 30
0.0
 10
47.51099755646926
 20
73.86031697526565
 30
0.0
 10
47.51338222017283
 20
73.63034335451146
 30
0.0
 10
47.51509161830369
 20
73.46549139787203
 30
0.0
 10
47.51558951339008
 20
73.417475094525
 30
0.0
 10
47.53394398834385
 20
73.41991880366674
 30
0.0
 10
47.60398903142809
 20
73.42924457912744
 30
0.0
 10
47.74783573991846
 20
73.42455790642046
 30
0.0
 10
47.90569690485502
 20
73.41278920913222
 30
0.0
 10
48.01129130424621
 20
73.40004827128215
 30
0.0
 10
48.04473383853532
 20
73.39601312118531
 30
0.0
 10
48.00500592821553
 20
73.42698109986063
 30
0.0
 10
47.93314495094827
 20
73.48299686292711
 30
0.0
 10
47.80534615484953
 20
73.58075761940938
 30
0.0
 10
47.89664816311598
 20
73.71718606269482
 30
0.0
 10
48.05485515560429
 20
73.75235155312904
 30
0.0
 10
48.26687203798137
 20
73.69946267804562
 30
0.0
 10
48.45996909925407
 20
73.56744370740878
 30
0.0
 10
48.62501190794631
 20
73.45130487255037
 30
0.0
 10
48.72538207098507
 20
73.4116654507126
 30
0.0
 10
48.75611667413728
 20
73.39952736243538
 30
0.0
  0
SPLINE
  5
104DC
330
1F
100
AcDbEntity
  8
0
100
AcDbSpline
210
0.0
220
0.0
230
1.0
 70
     9
 71
     3
 72
    59
 73
    55
 74
     0
 42
0.000000001
 43
0.0000000001
 40
0.0
 40
0.0
 40
0.0
 40
0.0
 40
0.1652314184934606
 40
0.4167148071529939
 40
0.4167148071529939
 40
0.4167148071529939
 40
0.6185849223674281
 40
0.8954268377041783
 40
1.021635648884831
 40
1.307595893306124
 40
1.492284877865872
 40
1.626587283725806
 40
1.626587283725806
 40
1.626587283725806
 40
1.721182201491046
 40
1.920884027138516
 40
2.082005052324342
 40
2.247590981215417
 40
2.670425555894142
 40
3.010671576617093
 40
3.209648384142099
 40
3.319263527156795
 40
3.319263527156795
 40
3.319263527156795
 40
3.537092458065561
 40
3.758627930910081
 40
3.919021730874329
 40
4.146631742244294
 40
4.444694776961386
 40
4.957141095354518
 40
5.297065992872029
 40
5.484856713243754
 40
5.586792762028623
 40
5.586792762028623
 40
5.586792762028623
 40
5.968677977786837
 40
6.603506492952319
 40
7.084129902510969
 40
7.606915836300144
 40
7.884840028536425
 40
7.884840028536425
 40
7.884840028536425
 40
8.382339753888881
 40
8.889385116262937
 40
9.277148647571335
 40
9.277148647571335
 40
9.277148647571335
 40
9.794756837284886
 40
10.31584876483276
 40
10.57000614324013
 40
10.88978327929468
 40
11.05954445294186
 40
11.22290249141311
 40
11.32777016696774
 40
11.32777016696774
 40
11.32777016696774
 40
11.32777016696774
 10
49.25300528496037
 20
72.28814856757262
 30
0.0
 10
49.20658812407521
 20
72.31790618876252
 30
0.0
 10
49.08952371572472
 20
72.39295512006481
 30
0.0
 10
48.96285654234431
 20
72.45056747557595
 30
0.0
 10
48.88641411830073
 20
72.48533597946371
 30
0.0
 10
48.90028138507282
 20
72.4195003042681
 30
0.0
 10
48.93316603185474
 20
72.26337848444285
 30
0.0
 10
49.04216591479974
 20
72.08179863340553
 30
0.0
 10
49.23468135663532
 20
71.95181130702181
 30
0.0
 10
49.32915632377994
 20
71.76695315269822
 30
0.0
 10
49.40105134167279
 20
71.57985555579023
 30
0.0
 10
49.42776289939101
 20
71.47672825175388
 30
0.0
 10
49.43900905390667
 20
71.43330938385372
 30
0.0
 10
49.40761460050764
 20
71.43652721468154
 30
0.0
 10
49.3099424885715
 20
71.44653829303391
 30
0.0
 10
49.16547348609251
 20
71.50776039993999
 30
0.0
 10
49.03708236999567
 20
71.63019519532619
 30
0.0
 10
48.89517495654155
 20
71.83703991188585
 30
0.0
 10
48.62485522178703
 20
72.01182561626308
 30
0.0
 10
48.31831975235488
 20
72.10820646800272
 30
0.0
 10
48.10042364676258
 20
72.13061787659802
 30
0.0
 10
47.99857714654087
 20
72.11460884292657
 30
0.0
 10
47.96240018642307
 20
72.10892226389444
 30
0.0
 10
48.01672600941507
 20
72.06075079944958
 30
0.0
 10
48.12630205466949
 20
71.96358819263713
 30
0.0
 10
48.29085419268825
 20
71.84810098920377
 30
0.0
 10
48.47487672507785
 20
71.76132468473759
 30
0.0
 10
48.68965670396542
 20
71.67979599855005
 30
0.0
 10
48.97071272955151
 20
71.47321464455072
 30
0.0
 10
49.27152403276081
 20
71.23790663858759
 30
0.0
 10
49.49848929388235
 20
70.96496277823224
 30
0.0
 10
49.55862974233612
 20
70.75947960817001
 30
0.0
 10
49.56261387701005
 20
70.66290352154101
 30
0.0
 10
49.56401563545878
 20
70.62892466378229
 30
0.0
 10
49.4768797082242
 20
70.72147004786504
 30
0.0
 10
49.24489300117073
 20
70.96785864540144
 30
0.0
 10
48.8681408786363
 20
71.30525217026309
 30
0.0
 10
48.36145539581893
 20
71.52402589455499
 30
0.0
 10
47.94220554903287
 20
71.61735923895091
 30
0.0
 10
47.67591749559882
 20
71.63725729907605
 30
0.0
 10
47.58348967465919
 20
71.64416385877553
 30
0.0
 10
47.56548897039076
 20
71.80901811854048
 30
0.0
 10
47.5291421783686
 20
72.14188973313355
 30
0.0
 10
47.51631331560692
 20
72.60708307546952
 30
0.0
 10
47.54374102316053
 20
72.90426084790644
 30
0.0
 10
47.55562676190517
 20
73.03304220365745
 30
0.0
 10
47.72650465577457
 20
73.01255296128542
 30
0.0
 10
48.06941052922637
 20
72.97143657464897
 30
0.0
 10
48.50994665854577
 20
72.9874541897341
 30
0.0
 10
48.84935319319014
 20
72.84132636305966
 30
0.0
 10
49.06591196395488
 20
72.72388242683013
 30
0.0
 10
49.22714711776158
 20
72.56252020517272
 30
0.0
 10
49.24357069320658
 20
72.41139222060946
 30
0.0
 10
49.25035344567653
 20
72.32278942635431
 30
0.0
 10
49.25300528496037
 20
72.28814856757264
 30
0.0
  0
SPLINE
  5
104DF
330
1F
100
AcDbEntity
  8
0
100
AcDbSpline
210
0.0
220
0.0
230
1.0
 70
     9
 71
     3
 72
    42
 73
    38
 74
     0
 42
0.000000001
 43
0.0000000001
 40
0.0
 40
0.0
 40
0.0
 40
0.0
 40
0.1065232059431159
 40
0.3289211800261306
 40
0.6449490820886591
 40
0.8350898170191133
 40
1.01635048185851
 40
1.152965689361431
 40
1.152965689361431
 40
1.152965689361431
 40
1.674552597989904
 40
2.371034126733338
 40
2.960471888003311
 40
3.271817362068534
 40
3.397862674618196
 40
3.450166807282268
 40
3.566920272689203
 40
3.825308962482057
 40
4.211437038418365
 40
4.554511043607682
 40
4.699108366906974
 40
4.699108366906974
 40
4.699108366906974
 40
5.172749431217367
 40
5.603188484638976
 40
6.109323610169594
 40
6.670980507181917
 40
6.974885794878984
 40
7.235664237780105
 40
7.482520642165818
 40
7.546955933029675
 40
7.603491346551315
 40
7.699027449055893
 40
7.820217108428785
 40
7.903542900064287
 40
8.025571008471871
 40
8.092261088524733
 40
8.092261088524733
 40
8.092261088524733
 40
8.092261088524733
 10
49.17795113258411
 20
69.81374620272845
 30
0.0
 10
49.17698901972314
 20
69.77820439263367
 30
0.0
 10
49.17401821824618
 20
69.66845878356064
 30
0.0
 10
49.23450347330025
 20
69.45521884152753
 30
0.0
 10
49.38825275240489
 20
69.26442107861084
 30
0.0
 10
49.57304471056346
 20
69.11330780214585
 30
0.0
 10
49.59424106007396
 20
68.93369983306958
 30
0.0
 10
49.58310823237202
 20
68.82913738569934
 30
0.0
 10
49.57832361768772
 20
68.7841990255173
 30
0.0
 10
49.42873152317648
 20
68.87275294416276
 30
0.0
 10
49.07938723214808
 20
69.07955401896597
 30
0.0
 10
48.55385618643791
 20
69.37550259530282
 30
0.0
 10
48.05943353805577
 20
69.57805602716341
 30
0.0
 10
47.77933251439935
 20
69.78166641305858
 30
0.0
 10
47.66295932318527
 20
69.89369175702812
 30
0.0
 10
47.58477832777249
 20
69.9580726290888
 30
0.0
 10
47.57328351969834
 20
70.11131908575911
 30
0.0
 10
47.50883970356823
 20
70.35040411059966
 30
0.0
 10
47.49567952727395
 20
70.6847765249787
 30
0.0
 10
47.52339844765725
 20
70.97605246277623
 30
0.0
 10
47.57032788206756
 20
71.1319313813323
 30
0.0
 10
47.58424272635564
 20
71.1781503674922
 30
0.0
 10
47.7407951644853
 20
71.16003340473963
 30
0.0
 10
48.0396204931159
 20
71.12545197366768
 30
0.0
 10
48.49765238074425
 20
70.97484202678479
 30
0.0
 10
48.84807225834622
 20
70.59969082878041
 30
0.0
 10
49.22987337233166
 20
70.36561270464469
 30
0.0
 10
49.57897851815485
 20
70.17226707303217
 30
0.0
 10
49.63478834673963
 20
69.88240325615075
 30
0.0
 10
49.63870153467233
 20
69.70879705435791
 30
0.0
 10
49.64443291720218
 20
69.56850081324474
 30
0.0
 10
49.56418672229301
 20
69.5432871905289
 30
0.0
 10
49.47252557527751
 20
69.56834810985251
 30
0.0
 10
49.40833329015697
 20
69.64926618149643
 30
0.0
 10
49.33152703229244
 20
69.72740771351152
 30
0.0
 10
49.24391812686748
 20
69.759534897752
 30
0.0
 10
49.19517588476309
 20
69.79959099824077
 30
0.0
 10
49.17795113258411
 20
69.81374620272845
 30
0.0
  0
SPLINE
  5
104E1
330
1F
100
AcDbEntity
  8
0
100
AcDbSpline
210
0.0
220
0.0
230
1.0
 70
     9
 71
     3
 72
    25
 73
    21
 74
     0
 42
0.000000001
 43
0.0000000001
 40
0.0
 40
0.0
 40
0.0
 40
0.0
 40
0.6621542566884982
 40
1.196377272221687
 40
1.969640996249328
 40
2.696549958074216
 40
3.189898788007946
 40
3.595787448599196
 40
3.854514077339553
 40
4.149975478719126
 40
4.474314044058085
 40
4.720067941273735
 40
4.9564427453566
 40
5.152093910022499
 40
5.152093910022499
 40
5.152093910022499
 40
6.298209510133562
 40
7.910192356555327
 40
8.724076890356755
 40
9.28084103387426
 40
9.28084103387426
 40
9.28084103387426
 40
9.28084103387426
 10
47.74188154807633
 20
69.10110828096936
 30
0.0
 10
47.9459605444067
 20
69.01789149630705
 30
0.0
 10
48.31468953841561
 20
68.86753579167827
 30
0.0
 10
48.97844619060709
 20
68.75297417976317
 30
0.0
 10
49.46676300221124
 20
68.23418464062346
 30
0.0
 10
49.8213468722672
 20
67.65615455906587
 30
0.0
 10
49.77965972907501
 20
67.06497330686494
 30
0.0
 10
49.50027938774656
 20
66.78601520585107
 30
0.0
 10
49.35156041561715
 20
66.49031469241496
 30
0.0
 10
49.38365713979469
 20
66.19210287228009
 30
0.0
 10
49.32711206777492
 20
65.90267261839483
 30
0.0
 10
49.18227479419964
 20
65.67214392347323
 30
0.0
 10
49.13484363056887
 20
65.44834082182727
 30
0.0
 10
49.11760623570628
 20
65.30560562930036
 30
0.0
 10
49.10979995408287
 20
65.24096528664319
 30
0.0
 10
48.91055211912419
 20
65.56790646571392
 30
0.0
 10
48.43106720152833
 20
66.3546822133045
 30
0.0
 10
48.05450343351836
 20
67.49559532639685
 30
0.0
 10
47.83147615177944
 20
68.46460072798945
 30
0.0
 10
47.76776238805793
 20
68.917242853311
 30
0.0
 10
47.74188154807633
 20
69.10110828096936
 30
0.0
  0
CIRCLE
  5
104E2
330
1F
100
AcDbEntity
  8
0
100
AcDbCircle
 10
48.92354516790845
 20
81.8707199570467
 30
0.0
 40
0.3253297764100864
  0
SPLINE
  5
104E3
330
1F
100
AcDbEntity
  8
0
100
AcDbSpline
210
0.0
220
0.0
230
1.0
 70
     9
 71
     3
 72
    18
 73
    14
 74
     0
 42
0.000000001
 43
0.0000000001
 40
0.0
 40
0.0
 40
0.0
 40
0.0
 40
0.3735850646720427
 40
1.183800035448006
 40
2.282705916310066
 40
2.882877963199744
 40
2.882877963199744
 40
2.882877963199744
 40
3.298795484004737
 40
3.985300240213119
 40
4.84522346276347
 40
5.51320133917058
 40
5.743857896195773
 40
5.743857896195773
 40
5.743857896195773
 40
5.743857896195773
 10
60.32660973903016
 20
81.21181116662127
 30
0.0
 10
60.38831521953643
 20
81.10363588273029
 30
0.0
 10
60.58384485098675
 20
80.76085476802708
 30
0.0
 10
60.87114042168761
 20
80.05009844969555
 30
0.0
 10
60.99840089352716
 20
79.21662155457878
 30
0.0
 10
61.02584217923388
 20
78.65117750805132
 30
0.0
 10
61.03553537360882
 20
78.45144346097615
 30
0.0
 10
60.96969181502807
 20
78.57425420311137
 30
0.0
 10
60.79516825651873
 20
78.89977378623533
 30
0.0
 10
60.68932760406513
 20
79.55376766010238
 30
0.0
 10
60.5273219238732
 20
80.27061357865472
 30
0.0
 10
60.36360600731406
 20
80.83685525184245
 30
0.0
 10
60.33416618988052
 20
81.13522679548053
 30
0.0
 10
60.32660973903016
 20
81.21181116662127
 30
0.0
  0
SPLINE
  5
104E4
330
1F
100
AcDbEntity
  8
0
100
AcDbSpline
210
0.0
220
0.0
230
1.0
 70
     9
 71
     3
 72
   118
 73
   114
 74
     0
 42
0.000000001
 43
0.0000000001
 40
0.0
 40
0.0
 40
0.0
 40
0.0
 40
0.3812123833649968
 40
0.7495873443104345
 40
1.134311929099004
 40
1.678221845180287
 40
1.915075782173208
 40
2.024535178635203
 40
2.366994197664017
 40
2.458592602817835
 40
2.541515824834118
 40
2.575224685969109
 40
2.623819801260722
 40
2.664032511248998
 40
2.814397284352133
 40
3.124595094195168
 40
3.778939169096659
 40
4.041834443664629
 40
4.140916995713936
 40
4.477320588495418
 40
4.620640365153402
 40
4.838598561911389
 40
4.989541661052141
 40
5.117123022273803
 40
5.275462543552623
 40
5.635188205141661
 40
6.292753679687878
 40
6.832275655654356
 40
7.357721364783625
 40
7.630039806221114
 40
7.773258421325667
 40
7.924036767188288
 40
8.063680185321329
 40
8.18916759717419
 40
8.318116867733216
 40
8.364345925154346
 40
8.535244194624642
 40
8.898867403916275
 40
9.087316572181109
 40
9.592815840029217
 40
9.886094264702039
 40
10.03097898670521
 40
10.23519779726044
 40
10.3240122956445
 40
10.49800595990965
 40
10.86852015849583
 40
11.14863073673784
 40
11.86080921845022
 40
12.38166675091015
 40
12.99343928387511
 40
13.68038265600534
 40
14.41801917226451
 40
15.37032091972397
 40
15.89017479381548
 40
16.17891645818512
 40
16.3382539579687
 40
16.3382539579687
 40
16.3382539579687
 40
16.84568443452987
 40
17.46405586908813
 40
18.06646434985841
 40
18.96327359862546
 40
19.49143470759717
 40
19.73210167755546
 40
20.09413150418672
 40
20.60744730710893
 40
21.73103360627994
 40
22.45196870923988
 40
22.99125670061422
 40
24.01328338859633
 40
24.76699916742607
 40
25.30062463652229
 40
25.64621849252595
 40
26.22059626530169
 40
26.413104195184
 40
26.413104195184
 40
26.413104195184
 40
26.98143694705485
 40
27.94643119430829
 40
29.05905336827375
 40
29.50923097758641
 40
29.86275626579721
 40
30.12296149093022
 40
30.41153121442683
 40
30.85709476206672
 40
31.27618581847427
 40
31.50157443837005
 40
31.76832778476261
 40
32.142851083936
 40
32.6006958002083
 40
33.15226139932679
 40
33.59531141460938
 40
33.83844589815489
 40
34.59475570005601
 40
35.22389559786871
 40
36.02611373899101
 40
36.44638564275579
 40
36.44638564275579
 40
36.44638564275579
 40
37.28954514152146
 40
38.72494628837364
 40
39.49466949718684
 40
40.07124246455367
 40
40.56484653029567
 40
40.86573130691323
 40
41.5177381192115
 40
42.29112405497708
 40
42.77824101631376
 40
43.20815178663204
 40
43.74309571746096
 40
44.33230757112887
 40
44.81028891676547
 40
45.45690898778141
 40
45.45690898778141
 40
45.45690898778141
 40
45.45690898778141
 10
59.9399176930733
 20
77.59502937876755
 30
0.0
 10
59.86216196269978
 20
77.49466298411556
 30
0.0
 10
59.70926894563375
 20
77.29731005827114
 30
0.0
 10
59.49950076423505
 20
76.97975320760789
 30
0.0
 10
59.37617924722352
 20
76.55732327561924
 30
0.0
 10
59.40464139913643
 20
76.16140690810834
 30
0.0
 10
59.47274183743491
 20
75.8739232262701
 30
0.0
 10
59.52428337997322
 20
75.6482121319819
 30
0.0
 10
59.48001385770862
 20
75.4684568878356
 30
0.0
 10
59.46088427814022
 20
75.29356043777079
 30
0.0
 10
59.44260068812011
 20
75.23270966398825
 30
0.0
 10
59.44648533633437
 20
75.16385444197027
 30
0.0
 10
59.38710152782426
 20
75.18121897829295
 30
0.0
 10
59.34396061302926
 20
75.10452582783568
 30
0.0
 10
59.29381224495893
 20
74.95130505342308
 30
0.0
 10
59.25967760990751
 20
74.57412508366968
 30
0.0
 10
59.2503544647594
 20
74.16571311133941
 30
0.0
 10
59.28902065869095
 20
73.8304001527733
 30
0.0
 10
59.28764008995475
 20
73.59342933616375
 30
0.0
 10
59.144547408953
 20
73.43942339434241
 30
0.0
 10
59.01179320666819
 20
73.24979454982522
 30
0.0
 10
58.91486383709725
 20
73.1162725738233
 30
0.0
 10
58.82191458514552
 20
72.95753282384314
 30
0.0
 10
58.90028987968176
 20
72.82070842556809
 30
0.0
 10
59.03500630987249
 20
72.645943932453
 30
0.0
 10
58.88974217980841
 20
72.22911578630396
 30
0.0
 10
58.87851068036114
 20
71.72261701657721
 30
0.0
 10
58.60911693685988
 20
71.19678121322777
 30
0.0
 10
58.58586128484233
 20
70.73947327180824
 30
0.0
 10
58.48219053055998
 20
70.45264927247604
 30
0.0
 10
58.41339926208092
 20
70.25857333130892
 30
0.0
 10
58.50718123283106
 20
70.14061824672961
 30
0.0
 10
58.52933358294288
 20
69.97291494031031
 30
0.0
 10
58.38816074654348
 20
69.92385331771655
 30
0.0
 10
58.28217103235529
 20
69.90174639292911
 30
0.0
 10
58.23637812703646
 20
69.78563378526573
 30
0.0
 10
58.38563465242796
 20
69.61597594265498
 30
0.0
 10
58.34757924280889
 20
69.35902324533486
 30
0.0
 10
58.55101871430747
 20
69.05761975841727
 30
0.0
 10
58.52526434246474
 20
68.69693494421079
 30
0.0
 10
58.47659394502828
 20
68.41124273008865
 30
0.0
 10
58.49632321112469
 20
68.15468241042728
 30
0.0
 10
58.68101478180935
 20
68.18276371849439
 30
0.0
 10
58.8251772825621
 20
68.0726565434881
 30
0.0
 10
58.64549573043736
 20
67.8607654638041
 30
0.0
 10
58.48492526337458
 20
67.67701617039965
 30
0.0
 10
58.37766831122222
 20
67.20330623285987
 30
0.0
 10
58.64415122437154
 20
66.74314231573491
 30
0.0
 10
58.89647931750056
 20
66.17270767608554
 30
0.0
 10
58.7942818368098
 20
65.54839322391678
 30
0.0
 10
58.66439009174368
 20
64.85633225970324
 30
0.0
 10
58.77714469768361
 20
64.18029038721417
 30
0.0
 10
58.99885123641482
 20
63.52164178054092
 30
0.0
 10
59.49613369040469
 20
63.14403624140377
 30
0.0
 10
59.80763797090904
 20
63.04879622015142
 30
0.0
 10
59.95692245152877
 20
63.03860296306949
 30
0.0
 10
60.01000819574851
 20
63.03497822836182
 30
0.0
 10
60.02094797946972
 20
63.20288489033703
 30
0.0
 10
60.04521934271938
 20
63.57540812193798
 30
0.0
 10
60.22817741169048
 20
64.15503821850641
 30
0.0
 10
60.83840115854932
 20
64.56356687140348
 30
0.0
 10
61.44220785841091
 20
64.84704512596846
 30
0.0
 10
61.90186561096417
 20
65.1720194193682
 30
0.0
 10
62.10973059300282
 20
65.50781370070684
 30
0.0
 10
62.51660440891507
 20
65.5565962102819
 30
0.0
 10
62.95339692505685
 20
66.11450484777664
 30
0.0
 10
63.17909917191859
 20
66.86450299750234
 30
0.0
 10
63.83634840437139
 20
67.42382599256913
 30
0.0
 10
63.82178569789049
 20
68.22620877354506
 30
0.0
 10
64.22648663070624
 20
68.91780090447992
 30
0.0
 10
64.12809151560212
 20
69.72402532742387
 30
0.0
 10
64.45270156247625
 20
70.20606735962832
 30
0.0
 10
64.39046543093495
 20
70.70445042911479
 30
0.0
 10
64.26645431450058
 20
71.05149747852272
 30
0.0
 10
64.17425313992094
 20
71.29008107631475
 30
0.0
 10
64.15110828640557
 20
71.34997166282016
 30
0.0
 10
64.30088665791918
 20
71.47555842025642
 30
0.0
 10
64.70497954218581
 20
71.81438380956499
 30
0.0
 10
64.75998625647381
 20
72.76020974587737
 30
0.0
 10
64.7222426989865
 20
73.62898675809899
 30
0.0
 10
64.14167509080307
 20
74.11150332905015
 30
0.0
 10
64.31155497511409
 20
74.45920868032263
 30
0.0
 10
64.39227973025737
 20
74.79250615829101
 30
0.0
 10
64.02741214225044
 20
74.96381081715529
 30
0.0
 10
64.03685271483782
 20
75.39804853085005
 30
0.0
 10
63.97116100650425
 20
75.73554716544743
 30
0.0
 10
63.82291777592967
 20
76.03938921249412
 30
0.0
 10
64.04153707908125
 20
76.27731715083797
 30
0.0
 10
64.05357943409895
 20
76.70217838669365
 30
0.0
 10
63.60764671876075
 20
76.94645879750197
 30
0.0
 10
63.41122559121337
 20
77.42847030954891
 30
0.0
 10
63.45138952741352
 20
77.83740416086238
 30
0.0
 10
63.48663368986034
 20
78.33193620047063
 30
0.0
 10
63.01801104960808
 20
78.72903717463185
 30
0.0
 10
62.55074982112529
 20
79.27656452044345
 30
0.0
 10
61.9501214634219
 20
79.49899603893965
 30
0.0
 10
61.5733985572611
 20
79.64908821607841
 30
0.0
 10
61.44388743884654
 20
79.70068742974081
 30
0.0
 10
61.38412758382353
 20
79.97546364440456
 30
0.0
 10
61.22263209685741
 20
80.7180209778642
 30
0.0
 10
60.96472796345452
 20
81.69780880824424
 30
0.0
 10
60.40248766223363
 20
82.50546800980387
 30
0.0
 10
59.76014414655852
 20
82.64889693668681
 30
0.0
 10
59.28789419114801
 20
82.41138398245633
 30
0.0
 10
59.20293956629446
 20
81.90504197177459
 30
0.0
 10
59.40279461846883
 20
81.35446565225093
 30
0.0
 10
59.64249187273935
 20
80.76729650978263
 30
0.0
 10
59.86982172059232
 20
80.25125088355418
 30
0.0
 10
60.00500437343291
 20
79.78249327210332
 30
0.0
 10
59.98446249747053
 20
79.25423825667784
 30
0.0
 10
59.82243989852777
 20
78.7451307105081
 30
0.0
 10
59.76994713613423
 20
78.16654783354772
 30
0.0
 10
59.87786651857947
 20
77.80367369930556
 30
0.0
 10
59.9399176930733
 20
77.59502937876755
 30
0.0
  0
SPLINE
  5
104E5
330
1F
100
AcDbEntity
  8
0
100
AcDbSpline
210
0.0
220
0.0
230
1.0
 70
     9
 71
     3
 72
    41
 73
    37
 74
     0
 42
0.000000001
 43
0.0000000001
 40
0.0
 40
0.0
 40
0.0
 40
0.0
 40
0.0791874353992677
 40
0.1941945943608023
 40
0.3176273329265767
 40
0.4633071999323403
 40
0.5820427846218756
 40
0.685982998766299
 40
0.685982998766299
 40
0.685982998766299
 40
0.9269411896575219
 40
1.085528999055646
 40
1.282785865174421
 40
1.395834230281089
 40
1.484454856870987
 40
1.5330251715868
 40
1.5330251715868
 40
1.5330251715868
 40
1.58254835720419
 40
1.721293745935024
 40
1.938706603391253
 40
2.158382530553887
 40
2.279337245904033
 40
2.339837536191486
 40
2.339837536191486
 40
2.339837536191486
 40
2.645516222367843
 40
3.115721687615581
 40
3.410569236622832
 40
3.590247770343938
 40
3.654447699818038
 40
3.79604642612867
 40
3.962501503300389
 40
4.107598910667144
 40
4.329962826130587
 40
4.397897059975823
 40
4.397897059975823
 40
4.397897059975823
 40
4.397897059975823
 10
61.74824583269483
 20
78.64415590007908
 30
0.0
 10
61.7643857045294
 20
78.62324234709692
 30
0.0
 10
61.80396617393276
 20
78.5719551837036
 30
0.0
 10
61.88492910044901
 20
78.50175494243135
 30
0.0
 10
62.00101237353456
 20
78.44509197575177
 30
0.0
 10
62.13008686005548
 20
78.41904621804698
 30
0.0
 10
62.22744951809969
 20
78.33768580239234
 30
0.0
 10
62.26885617363743
 20
78.27606220815988
 30
0.0
 10
62.28818389881517
 20
78.24729765622198
 30
0.0
 10
62.20763275162102
 20
78.24822865234927
 30
0.0
 10
62.07406647374892
 20
78.2497723881217
 30
0.0
 10
61.8792458845285
 20
78.30080108364237
 30
0.0
 10
61.73386417777351
 20
78.33826567915221
 30
0.0
 10
61.6048073758623
 20
78.4178744180193
 30
0.0
 10
61.61834145387935
 20
78.51327204764022
 30
0.0
 10
61.64291614950596
 20
78.55138103526991
 30
0.0
 10
61.65161643750798
 20
78.56487292843033
 30
0.0
 10
61.63705376717851
 20
78.57261322623623
 30
0.0
 10
61.58169195740382
 20
78.60203893491905
 30
0.0
 10
61.45610313132634
 20
78.65666857477887
 30
0.0
 10
61.33688999755714
 20
78.82281200210792
 30
0.0
 10
61.30822375921228
 20
79.01031785677066
 30
0.0
 10
61.31716312506489
 20
79.14423809191333
 30
0.0
 10
61.32946402798555
 20
79.20349526926102
 30
0.0
 10
61.33356536536602
 20
79.22325265439656
 30
0.0
 10
61.42258867576889
 20
79.1730209436364
 30
0.0
 10
61.64855070312808
 20
79.04552108826454
 30
0.0
 10
61.97854460155159
 20
78.9204262591058
 30
0.0
 10
62.28427125816438
 20
78.80444785630544
 30
0.0
 10
62.41039073354295
 20
78.69480489418831
 30
0.0
 10
62.49556776290257
 20
78.56029136957918
 30
0.0
 10
62.29535587896084
 20
78.55637637788888
 30
0.0
 10
62.16947148426932
 20
78.58018658104635
 30
0.0
 10
62.01923477676676
 20
78.70319005715515
 30
0.0
 10
61.86353811981884
 20
78.67134793922961
 30
0.0
 10
61.77010955457582
 20
78.64931252587073
 30
0.0
 10
61.74824583269485
 20
78.64415590007905
 30
0.0
  0
SPLINE
  5
104E6
330
1F
100
AcDbEntity
  8
0
100
AcDbSpline
210
0.0
220
0.0
230
1.0
 70
     9
 71
     3
 72
    48
 73
    44
 74
     0
 42
0.000000001
 43
0.0000000001
 40
0.0
 40
0.0
 40
0.0
 40
0.0
 40
0.3135927691910621
 40
0.9812790668527552
 40
1.472151041528285
 40
1.909799139931505
 40
2.181307959224824
 40
2.181307959224824
 40
2.181307959224824
 40
2.329870721435208
 40
2.5322432542764
 40
2.667094352219161
 40
2.767283093929133
 40
2.767283093929133
 40
2.767283093929133
 40
2.90106214490915
 40
3.125257545956245
 40
3.492902772961449
 40
3.812387853831499
 40
4.166614987543793
 40
4.166614987543793
 40
4.166614987543793
 40
4.301875694256485
 40
4.483145968962539
 40
4.701008968624293
 40
5.116376554770662
 40
5.504575828690968
 40
5.933638704471851
 40
6.216106039984886
 40
6.369840926089526
 40
6.528830017213557
 40
6.8064621018187
 40
7.091804346545369
 40
7.393927337472703
 40
7.572523955383505
 40
7.685976017463136
 40
7.685976017463136
 40
7.685976017463136
 40
7.90901252642805
 40
8.3858611962719
 40
9.006626559531547
 40
9.469347631091395
 40
9.794302494852475
 40
9.794302494852475
 40
9.794302494852475
 40
9.794302494852475
 10
61.42280415048216
 20
78.13551710051808
 30
0.0
 10
61.42796336785862
 20
78.03158964249885
 30
0.0
 10
61.4441073370768
 20
77.70638495334558
 30
0.0
 10
61.48648021294275
 20
77.19845394223495
 30
0.0
 10
61.80039781025364
 20
76.76181529620527
 30
0.0
 10
62.10581583405605
 20
76.46850194480075
 30
0.0
 10
62.34624221842093
 20
76.44669211555594
 30
0.0
 10
62.43829220357501
 20
76.4383419735218
 30
0.0
 10
62.41186096235136
 20
76.48161636403333
 30
0.0
 10
62.3494250241701
 20
76.58383922780078
 30
0.0
 10
62.19552313865908
 20
76.64694495474503
 30
0.0
 10
62.06173941993111
 20
76.71916966908097
 30
0.0
 10
62.02999094090595
 20
76.79295467338258
 30
0.0
 10
62.01645774513183
 20
76.82440647640015
 30
0.0
 10
62.06158633740776
 20
76.82703384895924
 30
0.0
 10
62.18234428098998
 20
76.83406433874989
 30
0.0
 10
62.40374324546865
 20
76.7187357074834
 30
0.0
 10
62.70541634004288
 20
76.66747767674917
 30
0.0
 10
63.00031128236963
 20
76.46201804643386
 30
0.0
 10
63.12403355013888
 20
76.27309993818167
 30
0.0
 10
63.18908474460987
 20
76.17376981094924
 30
0.0
 10
63.21097908712315
 20
76.21337701507065
 30
0.0
 10
63.26221523612514
 20
76.30606400079244
 30
0.0
 10
63.27255242456479
 20
76.49614948054957
 30
0.0
 10
63.11407121025183
 20
76.72847811538719
 30
0.0
 10
62.85014978720162
 20
76.95496268214935
 30
0.0
 10
62.45569072114736
 20
77.0780241485252
 30
0.0
 10
62.13682802406182
 20
77.28693175000831
 30
0.0
 10
61.9101311126904
 20
77.41204378933327
 30
0.0
 10
61.77959238796972
 20
77.66990092190494
 30
0.0
 10
62.06684572547175
 20
77.62231881673509
 30
0.0
 10
62.21744160102884
 20
77.47137389510436
 30
0.0
 10
62.47879929368115
 20
77.31960509736243
 30
0.0
 10
62.72797931250702
 20
77.26507738647171
 30
0.0
 10
62.89752913598772
 20
77.14975568681592
 30
0.0
 10
62.95040867247594
 20
77.06738498245326
 30
0.0
 10
62.97095076996668
 20
77.03538645992887
 30
0.0
 10
62.98765791267365
 20
77.11087862327977
 30
0.0
 10
63.04008467282655
 20
77.34777188569106
 30
0.0
 10
62.67799813986918
 20
77.70409102587655
 30
0.0
 10
62.24889520655337
 20
77.96273362414502
 30
0.0
 10
61.79367646352272
 20
78.11543652291485
 30
0.0
 10
61.53112108908989
 20
78.12965236860486
 30
0.0
 10
61.42280415048265
 20
78.13551710052355
 30
0.0
  0
SPLINE
  5
104E7
330
1F
100
AcDbEntity
  8
0
100
AcDbSpline
210
0.0
220
0.0
230
1.0
 70
     9
 71
     3
 72
    21
 73
    17
 74
     0
 42
0.000000001
 43
0.0000000001
 40
0.0
 40
0.0
 40
0.0
 40
0.0
 40
0.6603965835744626
 40
1.387557137153691
 40
1.899499964354224
 40
2.488175346250922
 40
2.488175346250922
 40
2.488175346250922
 40
3.284984161609414
 40
4.042509445953073
 40
4.468716491947853
 40
4.599769002342554
 40
4.599769002342554
 40
4.599769002342554
 40
4.860107692927353
 40
5.081504572221633
 40
5.081504572221633
 40
5.081504572221633
 40
5.081504572221633
 10
61.81627150257821
 20
76.44913571450058
 30
0.0
 10
62.01417965077649
 20
76.35549148929439
 30
0.0
 10
62.43000382425581
 20
76.15873590898122
 30
0.0
 10
63.0100777936549
 20
75.86206588085833
 30
0.0
 10
63.34447787570853
 20
75.32887535914946
 30
0.0
 10
63.43139283533242
 20
74.97159384290958
 30
0.0
 10
63.47788007007578
 20
74.7804986645101
 30
0.0
 10
63.29643150944223
 20
74.97530285680074
 30
0.0
 10
62.94247999723697
 20
75.35530718532474
 30
0.0
 10
62.40207551038446
 20
75.74089524606694
 30
0.0
 10
61.99962777707452
 20
75.92929678272316
 30
0.0
 10
61.81643061730191
 20
75.96169668654821
 30
0.0
 10
61.77334755589884
 20
75.96931627545274
 30
0.0
 10
61.78107985052403
 20
76.05575066829485
 30
0.0
 10
61.79538783275049
 20
76.21569048131078
 30
0.0
 10
61.80969581497696
 20
76.37563029432675
 30
0.0
 10
61.81627150257821
 20
76.44913571450058
 30
0.0
  0
SPLINE
  5
104E8
330
1F
100
AcDbEntity
  8
0
100
AcDbSpline
210
0.0
220
0.0
230
1.0
 70
     9
 71
     3
 72
    32
 73
    28
 74
     0
 42
0.000000001
 43
0.0000000001
 40
0.0
 40
0.0
 40
0.0
 40
0.0
 40
0.2537565323772255
 40
0.5899998210706712
 40
0.5899998210706712
 40
0.5899998210706712
 40
0.8065154169361939
 40
1.356589311223736
 40
1.734592635370889
 40
2.141793812441597
 40
2.542420548545437
 40
2.979757526084944
 40
3.221709741776335
 40
3.34137208715447
 40
3.34137208715447
 40
3.34137208715447
 40
3.858246732052656
 40
4.284893290212898
 40
4.284893290212898
 40
4.284893290212898
 40
4.423916058496611
 40
4.764866229086958
 40
5.430398861022347
 40
5.892743683051017
 40
6.264093579826281
 40
6.946509247643946
 40
7.338395039620646
 40
7.338395039620646
 40
7.338395039620646
 40
7.338395039620646
 10
63.9783759684153
 20
73.65839015839106
 30
0.0
 10
63.97731314658329
 20
73.57380225148617
 30
0.0
 10
63.97484201929906
 20
73.37713007335108
 30
0.0
 10
63.96392255567893
 20
73.18073723409174
 30
0.0
 10
63.95769950911641
 20
73.06881215921873
 30
0.0
 10
63.92567955035969
 20
73.13352589733861
 30
0.0
 10
63.81231051678078
 20
73.36264967621883
 30
0.0
 10
63.59660952600305
 20
73.67950135820652
 30
0.0
 10
63.28212752204852
 20
74.0026635775373
 30
0.0
 10
62.90640450694123
 20
74.15885127523456
 30
0.0
 10
62.65380464123015
 20
74.50314190448705
 30
0.0
 10
62.32854129459051
 20
74.67603400037927
 30
0.0
 10
62.0782001035112
 20
74.76561612867397
 30
0.0
 10
61.96211932086304
 20
74.79829937376135
 30
0.0
 10
61.92370687789082
 20
74.80911462896057
 30
0.0
 10
61.90539501071377
 20
74.9804302824657
 30
0.0
 10
61.87196788264772
 20
75.29315591738202
 30
0.0
 10
61.83854075458166
 20
75.60588155229829
 30
0.0
 10
61.82342549369263
 20
75.74729153370942
 30
0.0
 10
61.86792951441649
 20
75.73406147435668
 30
0.0
 10
62.02157863162402
 20
75.68838499598249
 30
0.0
 10
62.35323688899232
 20
75.49176415291708
 30
0.0
 10
62.74551212446938
 20
75.19928280400669
 30
0.0
 10
63.08992403074251
 20
74.82786709013936
 30
0.0
 10
63.30239465433374
 20
74.3633881048971
 30
0.0
 10
63.65527431890939
 20
74.02388200699909
 30
0.0
 10
63.89201664040133
 20
73.7560796331698
 30
0.0
 10
63.9783759684153
 20
73.65839015839106
 30
0.0
  0
SPLINE
  5
104E9
330
1F
100
AcDbEntity
  8
0
100
AcDbSpline
210
0.0
220
0.0
230
1.0
 70
     9
 71
     3
 72
    31
 73
    27
 74
     0
 42
0.000000001
 43
0.0000000001
 40
0.0
 40
0.0
 40
0.0
 40
0.0
 40
0.166413931212976
 40
0.6671188022714057
 40
1.459159735949223
 40
1.892683731342825
 40
1.892683731342825
 40
1.892683731342825
 40
2.189436631565676
 40
2.996765006849519
 40
3.657563226745009
 40
4.050460505679677
 40
4.27133346313804
 40
4.27133346313804
 40
4.27133346313804
 40
4.669195256263037
 40
4.885420131068815
 40
4.976508348002131
 40
4.976508348002131
 40
4.976508348002131
 40
5.510338203648453
 40
5.944611990460212
 40
6.217573114337668
 40
6.217573114337668
 40
6.217573114337668
 40
6.35530685512746
 40
6.35530685512746
 40
6.35530685512746
 40
6.35530685512746
 10
62.79034387151345
 20
73.49139966936206
 30
0.0
 10
62.81510160183635
 20
73.44166375753778
 30
0.0
 10
62.91435018805486
 20
73.24228284222463
 30
0.0
 10
63.22039925844461
 20
72.86163293294584
 30
0.0
 10
63.42421365502516
 20
72.29820008630125
 30
0.0
 10
63.41620247002438
 20
71.88867917391658
 30
0.0
 10
63.4133686414389
 20
71.74381769989515
 30
0.0
 10
63.34541368307782
 20
71.81707632192644
 30
0.0
 10
63.09258448731265
 20
72.08963801481442
 30
0.0
 10
62.96913577201597
 20
72.68439072699184
 30
0.0
 10
62.6217160278467
 20
73.22895092582098
 30
0.0
 10
62.2325268057229
 20
73.43002294661591
 30
0.0
 10
62.03173448241885
 20
73.46989663043271
 30
0.0
 10
61.95947683345933
 20
73.48424567824759
 30
0.0
 10
61.9448308590023
 20
73.61598942648925
 30
0.0
 10
61.92222527633936
 20
73.81933159398665
 30
0.0
 10
61.89493007787165
 20
74.0532252258642
 30
0.0
 10
61.89505414090479
 20
74.15571244242855
 30
0.0
 10
61.8950909134367
 20
74.18608985903157
 30
0.0
 10
62.05297013498597
 20
74.10527090922639
 30
0.0
 10
62.33928504943609
 20
73.95870525940657
 30
0.0
 10
62.70833534838586
 20
73.75867063422259
 30
0.0
 10
62.86567076112004
 20
73.58131356070444
 30
0.0
 10
62.92639521128016
 20
73.51286164270175
 30
0.0
 10
62.88104476469126
 20
73.50570765158852
 30
0.0
 10
62.83569431810235
 20
73.49855366047529
 30
0.0
 10
62.79034387151345
 20
73.49139966936206
 30
0.0
  0
SPLINE
  5
104EA
330
1F
100
AcDbEntity
  8
0
100
AcDbSpline
210
0.0
220
0.0
230
1.0
 70
    11
 71
     3
 72
    22
 73
    18
 74
     0
 42
0.000000001
 43
0.0000000001
 40
0.0
 40
0.0
 40
0.0
 40
0.0
 40
0.078069898284358
 40
0.2732257910416642
 40
0.5330222830563752
 40
0.7127293648697504
 40
0.8465892099085692
 40
0.9280086758660628
 40
0.9280086758660628
 40
0.9280086758660628
 40
1.208720239131323
 40
1.547253306697989
 40
1.695039879199377
 40
1.78906473838778
 40
1.835918951529124
 40
1.91059568364056
 40
1.964673131514856
 40
1.964673131514856
 40
1.964673131514856
 40
1.964673131514856
 10
62.24993065692797
 20
72.81521619602222
 30
0.0
 10
62.27614655486545
 20
72.81272654173736
 30
0.0
 10
62.35882231032319
 20
72.78639499081538
 30
0.0
 10
62.48963376029855
 20
72.64910447565199
 30
0.0
 10
62.59720395598664
 20
72.47079174539755
 30
0.0
 10
62.6916482443921
 20
72.30359359404264
 30
0.0
 10
62.71674617556347
 20
72.16881015115942
 30
0.0
 10
62.69629216835814
 20
72.09940253611478
 30
0.0
 10
62.68855638392238
 20
72.07315230833319
 30
0.0
 10
62.63861607462678
 20
72.15235537463439
 30
0.0
 10
62.52844865568025
 20
72.32707590620762
 30
0.0
 10
62.37235027167111
 20
72.52957162017665
 30
0.0
 10
62.22667370737534
 20
72.66193637083308
 30
0.0
 10
62.14954197304789
 20
72.71264837928322
 30
0.0
 10
62.10956254463726
 20
72.79068104105698
 30
0.0
 10
62.18557397584388
 20
72.81529578324452
 30
0.0
 10
62.23177143185729
 20
72.81694072945666
 30
0.0
 10
62.24993065692797
 20
72.81521619602222
 30
0.0
  0
SPLINE
  5
104EB
330
1F
100
AcDbEntity
  8
0
100
AcDbSpline
210
0.0
220
0.0
230
1.0
 70
     9
 71
     3
 72
    37
 73
    33
 74
     0
 42
0.000000001
 43
0.0000000001
 40
0.0
 40
0.0
 40
0.0
 40
0.0
 40
0.1895811666343352
 40
0.6257523145622495
 40
1.311659000516768
 40
2.015615126815421
 40
2.596579736232627
 40
3.242757480594972
 40
3.581518156263844
 40
3.581518156263844
 40
3.581518156263844
 40
3.67534760786559
 40
3.894570710470672
 40
4.04009999691654
 40
4.189799385256695
 40
4.329802765146018
 40
4.384631742646009
 40
4.384631742646009
 40
4.384631742646009
 40
4.448282840834891
 40
4.627789040695746
 40
4.832404752150021
 40
4.914187587033781
 40
4.914187587033781
 40
4.914187587033781
 40
5.22066318251533
 40
5.749737678110502
 40
6.364369690225639
 40
6.883896286049171
 40
7.722954971089763
 40
8.057811615925105
 40
8.193085487987818
 40
8.193085487987818
 40
8.193085487987818
 40
8.193085487987818
 10
62.07406619988278
 20
72.38842995177083
 30
0.0
 10
62.10570433143915
 20
72.33371961275873
 30
0.0
 10
62.21013260562536
 20
72.15313668949119
 30
0.0
 10
62.47341996221561
 20
71.80110598961022
 30
0.0
 10
62.90492769134075
 20
71.37496834538933
 30
0.0
 10
63.39594559183716
 20
70.91928505646075
 30
0.0
 10
63.63485807219425
 20
70.31197221205556
 30
0.0
 10
63.67193752678348
 20
69.75679946820013
 30
0.0
 10
63.50083408845465
 20
69.47147220486343
 30
0.0
 10
63.44198460588931
 20
69.37333646911702
 30
0.0
 10
63.41741128469251
 20
69.39292672416311
 30
0.0
 10
63.33542486338602
 20
69.45828764512395
 30
0.0
 10
63.27092527286186
 20
69.6088489976087
 30
0.0
 10
63.28643471105599
 20
69.78923894154636
 30
0.0
 10
63.16868763142375
 20
69.89683230205783
 30
0.0
 10
63.06560862940002
 20
69.9451318692665
 30
0.0
 10
63.00290466285021
 20
69.96258317701623
 30
0.0
 10
62.98525875219557
 20
69.96749425735618
 30
0.0
 10
62.9782090815518
 20
69.9472138726569
 30
0.0
 10
62.95127822073938
 20
69.8697395841183
 30
0.0
 10
62.99588868473233
 20
69.71858617065175
 30
0.0
 10
63.01608608708038
 20
69.56690774381536
 30
0.0
 10
63.03106062128934
 20
69.4724709268508
 30
0.0
 10
63.03533668998567
 20
69.44550392332542
 30
0.0
 10
62.95960197087585
 20
69.51730158296754
 30
0.0
 10
62.75312500376057
 20
69.71304487195218
 30
0.0
 10
62.70698412057533
 20
70.23609350764591
 30
0.0
 10
62.28419609922221
 20
70.62152192333897
 30
0.0
 10
61.90593613873588
 20
71.18259024038704
 30
0.0
 10
61.9410633689852
 20
71.76915873818845
 30
0.0
 10
61.9645794015083
 20
72.21651702603182
 30
0.0
 10
62.04960205091733
 20
72.35001707015584
 30
0.0
 10
62.07406619988278
 20
72.38842995177083
 30
0.0
  0
SPLINE
  5
104EC
330
1F
100
AcDbEntity
  8
0
100
AcDbSpline
210
0.0
220
0.0
230
1.0
 70
     9
 71
     3
 72
    27
 73
    23
 74
     0
 42
0.000000001
 43
0.0000000001
 40
0.0
 40
0.0
 40
0.0
 40
0.0
 40
0.1755036036808691
 40
0.3869580898911441
 40
0.5854087356527331
 40
0.7762042244882301
 40
0.9223300188793642
 40
1.219241367649001
 40
1.415640600304123
 40
1.764849412688575
 40
2.242112886658211
 40
2.642981050745528
 40
2.91556430777292
 40
2.91556430777292
 40
2.91556430777292
 40
3.542993101581041
 40
4.127874577681921
 40
4.701772698129592
 40
5.217152783275899
 40
5.481283073494513
 40
5.595957846066209
 40
5.694792291787788
 40
5.694792291787788
 40
5.694792291787788
 40
5.694792291787788
 10
61.95947683345933
 20
70.23269396300737
 30
0.0
 10
61.94881385642798
 20
70.17504503605682
 30
0.0
 10
61.92530365414111
 20
70.04793813802632
 30
0.0
 10
61.84181229062719
 20
69.86828903307312
 30
0.0
 10
61.7951804663414
 20
69.67875155129693
 30
0.0
 10
61.81749465016139
 20
69.47131469075227
 30
0.0
 10
62.03323330373013
 20
69.39955510826852
 30
0.0
 10
62.25567996457761
 20
69.34773882262608
 30
0.0
 10
62.37002347728756
 20
69.07238462781329
 30
0.0
 10
62.62350692940619
 20
68.83995316104879
 30
0.0
 10
62.7830877410085
 20
68.45174808296954
 30
0.0
 10
62.89248422380779
 20
68.08570225488839
 30
0.0
 10
62.93699513403481
 20
67.86540563026041
 30
0.0
 10
62.95501117573069
 20
67.77623933025637
 30
0.0
 10
62.97847900461957
 20
67.98589015490541
 30
0.0
 10
63.0238232576332
 20
68.39097492360773
 30
0.0
 10
62.827314344423
 20
68.97721588447777
 30
0.0
 10
62.45013118304763
 20
69.39703012826811
 30
0.0
 10
62.25369912627383
 20
69.80426534777492
 30
0.0
 10
62.19580467089304
 20
70.11182510169601
 30
0.0
 10
62.06320562664209
 20
70.21568986217565
 30
0.0
 10
61.99229958275991
 20
70.22731338041734
 30
0.0
 10
61.95947683345933
 20
70.23269396300737
 30
0.0
  0
SPLINE
  5
104ED
330
1F
100
AcDbEntity
  8
0
100
AcDbSpline
210
0.0
220
0.0
230
1.0
 70
     9
 71
     3
 72
    37
 73
    33
 74
     0
 42
0.000000001
 43
0.0000000001
 40
0.0
 40
0.0
 40
0.0
 40
0.0
 40
0.3296260493922663
 40
0.7219723482650467
 40
1.204389645219694
 40
1.920637788728742
 40
2.629364586590056
 40
2.884100236888187
 40
2.884100236888187
 40
2.884100236888187
 40
3.080594788110628
 40
3.080594788110628
 40
3.080594788110628
 40
3.353944764946825
 40
3.642827257161453
 40
3.911217055500674
 40
4.012544909361825
 40
4.012544909361825
 40
4.012544909361825
 40
4.075986230540157
 40
4.165438633210903
 40
4.321630843959994
 40
4.590718924010145
 40
4.973701650632554
 40
5.330451139298782
 40
5.574683764881894
 40
5.574683764881894
 40
5.574683764881894
 40
6.903133586471582
 40
8.449619542096995
 40
9.456085448988378
 40
9.74496850585939
 40
9.74496850585939
 40
9.74496850585939
 40
9.74496850585939
 10
61.68586260463332
 20
69.05143770015611
 30
0.0
 10
61.76580996973334
 20
68.97541132028013
 30
0.0
 10
61.94091684318976
 20
68.80889249050207
 30
0.0
 10
62.1759995468529
 20
68.48816380176924
 30
0.0
 10
62.5496783926164
 20
68.07226063564574
 30
0.0
 10
62.42941059847368
 20
67.38570442648891
 30
0.0
 10
62.31925104681254
 20
66.85138646139535
 30
0.0
 10
62.21596419919475
 20
66.54623396341595
 30
0.0
 10
62.18865556630986
 20
66.46555285315435
 30
0.0
 10
62.14196636115069
 20
66.51148900661707
 30
0.0
 10
62.09527715599152
 20
66.55742516007977
 30
0.0
 10
62.04858795083236
 20
66.60336131354251
 30
0.0
 10
61.98566483986798
 20
66.53775526472569
 30
0.0
 10
61.85624314959631
 20
66.40281524666581
 30
0.0
 10
61.67732610945423
 20
66.18631617772883
 30
0.0
 10
61.60758890454893
 20
65.97542042161453
 30
0.0
 10
61.56648017660078
 20
65.85939220355266
 30
0.0
 10
61.55521358125928
 20
65.82759255792154
 30
0.0
 10
61.53639034931257
 20
65.83686188251738
 30
0.0
 10
61.49102631883913
 20
65.85920097522069
 30
0.0
 10
61.38289595133534
 20
65.88314231433145
 30
0.0
 10
61.24452421413369
 20
65.74754384209068
 30
0.0
 10
61.11880149508675
 20
65.52588684707902
 30
0.0
 10
60.86763798943218
 20
65.24688404612366
 30
0.0
 10
60.51189567130689
 20
65.29260997126228
 30
0.0
 10
60.33606440568771
 20
65.19002809292228
 30
0.0
 10
60.26460848271835
 20
65.14833992801652
 30
0.0
 10
60.47763541431233
 20
65.53742586683151
 30
0.0
 10
60.93865301331883
 20
66.37945773565433
 30
0.0
 10
61.33217426355398
 20
67.62068211790832
 30
0.0
 10
61.50369627948847
 20
68.55530868573215
 30
0.0
 10
61.65264476521244
 20
68.96096909175629
 30
0.0
 10
61.68586260463332
 20
69.05143770015612
 30
0.0
  0
SPLINE
  5
104EE
330
1F
100
AcDbEntity
  8
0
100
AcDbSpline
210
0.0
220
0.0
230
1.0
 70
     9
 71
     3
 72
    19
 73
    15
 74
     0
 42
0.000000001
 43
0.0000000001
 40
0.0
 40
0.0
 40
0.0
 40
0.0
 40
0.0759643587508001
 40
0.1920137624725299
 40
0.2434083732821175
 40
0.2434083732821175
 40
0.2434083732821175
 40
0.5341143633271793
 40
0.8211229750803498
 40
0.8211229750803498
 40
0.8211229750803498
 40
0.9435532737567848
 40
1.26829684448858
 40
1.345652010798433
 40
1.345652010798433
 40
1.345652010798433
 40
1.345652010798433
 10
60.62933652087484
 20
78.38309797875649
 30
0.0
 10
60.61291410021643
 20
78.36307996605381
 30
0.0
 10
60.57140343875118
 20
78.31248079034216
 30
0.0
 10
60.48266125736465
 20
78.29977857329857
 30
0.0
 10
60.42798539831441
 20
78.30896978185823
 30
0.0
 10
60.41120340401956
 20
78.31179089545918
 30
0.0
 10
60.42513898293174
 20
78.40768567610073
 30
0.0
 10
60.45283289945712
 20
78.59825558827279
 30
0.0
 10
60.4799425937241
 20
78.78890948456484
 30
0.0
 10
60.49341068972238
 20
78.88362633944405
 30
0.0
 10
60.51574855582304
 20
78.84913320215261
 30
0.0
 10
60.59733710152238
 20
78.7231478060751
 30
0.0
 10
60.61280029801435
 20
78.5415962448082
 30
0.0
 10
60.62666856414205
 20
78.40867011331323
 30
0.0
 10
60.62933652087484
 20
78.38309797875649
 30
0.0
  0
SPLINE
  5
104EF
330
1F
100
AcDbEntity
  8
0
100
AcDbSpline
210
0.0
220
0.0
230
1.0
 70
     9
 71
     3
 72
    28
 73
    24
 74
     0
 42
0.000000001
 43
0.0000000001
 40
0.0
 40
0.0
 40
0.0
 40
0.0
 40
0.2810731515797046
 40
0.6702612637237094
 40
0.8788418346760417
 40
1.359036802602551
 40
1.529318731208594
 40
1.624119130818918
 40
1.624119130818918
 40
1.624119130818918
 40
1.841769597218954
 40
1.961246038128243
 40
2.283833650199422
 40
2.461238316210498
 40
2.612829781964654
 40
2.888676640125508
 40
3.360748520040303
 40
3.694457006558986
 40
4.041360083830414
 40
4.242051572112419
 40
4.42707672742394
 40
4.822300651637248
 40
5.465746765848832
 40
5.465746765848832
 40
5.465746765848832
 40
5.465746765848832
 10
60.05450705950028
 20
76.04813568631121
 30
0.0
 10
60.0349663123066
 20
76.13836499275357
 30
0.0
 10
59.98836845749716
 20
76.35353036383603
 30
0.0
 10
59.95467630676376
 20
76.67265278367176
 30
0.0
 10
60.19483604243004
 20
76.95548917326485
 30
0.0
 10
60.29272311029649
 20
77.22798892849088
 30
0.0
 10
60.46559575929419
 20
77.41372991832884
 30
0.0
 10
60.5425688545276
 20
77.45759773746499
 30
0.0
 10
60.57009645410947
 20
77.47328602122241
 30
0.0
 10
60.51010651148354
 20
77.51365723560269
 30
0.0
 10
60.41718585681344
 20
77.57618971197849
 30
0.0
 10
60.26863293865933
 20
77.75073188015233
 30
0.0
 10
60.30609044334489
 20
77.96480509677246
 30
0.0
 10
60.39264634880348
 20
78.21238746153269
 30
0.0
 10
60.6225998353425
 20
78.14462812663106
 30
0.0
 10
60.87542218057919
 20
77.99010125542574
 30
0.0
 10
60.98148488772335
 20
77.60987036925093
 30
0.0
 10
61.02830517601964
 20
77.23328867682258
 30
0.0
 10
61.06779215778246
 20
76.94779886754052
 30
0.0
 10
61.10745621537218
 20
76.69060936237852
 30
0.0
 10
60.91937712910575
 20
76.48135902532676
 30
0.0
 10
60.54101290653242
 20
76.32931767757279
 30
0.0
 10
60.24060615635716
 20
76.15569393035994
 30
0.0
 10
60.05450705950027
 20
76.04813568631124
 30
0.0
  0
SPLINE
  5
104F0
330
1F
100
AcDbEntity
  8
0
100
AcDbSpline
210
0.0
220
0.0
230
1.0
 70
     9
 71
     3
 72
    33
 73
    29
 74
     0
 42
0.000000001
 43
0.0000000001
 40
0.0
 40
0.0
 40
0.0
 40
0.0
 40
0.2930073938470701
 40
0.6262761965842767
 40
1.010739766976124
 40
1.10470614782347
 40
1.289681319293168
 40
1.756701361719866
 40
1.756701361719866
 40
1.756701361719866
 40
1.917164291300442
 40
2.351458991835255
 40
2.577513116907156
 40
2.674751291453595
 40
2.76583435118994
 40
2.967658321204613
 40
3.550334832389033
 40
3.976189429872794
 40
4.118177712599977
 40
4.118177712599977
 40
4.118177712599977
 40
4.214936451734658
 40
4.280716708784991
 40
4.4412119798958
 40
4.536444599235927
 40
4.615663308263658
 40
4.668038464330164
 40
4.696482464996247
 40
4.696482464996247
 40
4.696482464996247
 40
4.696482464996247
 10
60.12529391893728
 20
75.0297587759216
 30
0.0
 10
60.14381261075117
 20
75.12696382884207
 30
0.0
 10
60.18339460123492
 20
75.33473063647273
 30
0.0
 10
60.37014595199733
 20
75.61365558441193
 30
0.0
 10
60.54864170535769
 20
75.84640336069909
 30
0.0
 10
60.76669339142251
 20
75.89694778620572
 30
0.0
 10
60.99757187716462
 20
75.98938383590897
 30
0.0
 10
61.18917049660194
 20
76.09264820573418
 30
0.0
 10
61.3264113742516
 20
76.16661581983476
 30
0.0
 10
61.3482996187673
 20
76.11741711801929
 30
0.0
 10
61.42942864009056
 20
75.93506158348549
 30
0.0
 10
61.39703082591646
 20
75.64550994398996
 30
0.0
 10
61.34657542114467
 20
75.40661452865089
 30
0.0
 10
61.35294387336829
 20
75.25682506005626
 30
0.0
 10
61.23626579378168
 20
75.17665361142954
 30
0.0
 10
60.97394332648832
 20
75.06759121410087
 30
0.0
 10
60.59890243550917
 20
74.89687333327612
 30
0.0
 10
60.30138475734614
 20
74.65400690458867
 30
0.0
 10
60.14615992854344
 20
74.54565533465765
 30
0.0
 10
60.10734618684408
 20
74.51856218286962
 30
0.0
 10
60.10924037706101
 20
74.55064298953345
 30
0.0
 10
60.11242230955819
 20
74.60453354410851
 30
0.0
 10
60.11882898831622
 20
74.7135911694119
 30
0.0
 10
60.18390391541874
 20
74.80365499145165
 30
0.0
 10
60.22663282377568
 20
74.90885987219505
 30
0.0
 10
60.20817252000966
 20
74.99065681527383
 30
0.0
 10
60.16080086236164
 20
75.02171154143076
 30
0.0
 10
60.13453728647724
 20
75.02766387450501
 30
0.0
 10
60.12529391893728
 20
75.0297587759216
 30
0.0
  0
SPLINE
  5
104F1
330
1F
100
AcDbEntity
  8
0
100
AcDbSpline
210
0.0
220
0.0
230
1.0
 70
     9
 71
     3
 72
    26
 73
    22
 74
     0
 42
0.000000001
 43
0.0000000001
 40
0.0
 40
0.0
 40
0.0
 40
0.0
 40
0.1573941403840994
 40
0.2634771183877621
 40
0.3358109329010904
 40
0.3358109329010904
 40
0.3358109329010904
 40
0.7800771921170318
 40
1.283741822171217
 40
1.638674467387679
 40
1.923348178622006
 40
2.277555132663872
 40
2.430650691654036
 40
2.520544649559481
 40
2.654287279778779
 40
2.935528437796914
 40
3.216407137544193
 40
3.695939713131225
 40
4.050463186665729
 40
4.231460947832011
 40
4.389967675641986
 40
4.389967675641986
 40
4.389967675641986
 40
4.389967675641986
 10
61.42656724983556
 20
74.5435383974594
 30
0.0
 10
61.42171341477919
 20
74.59573394896427
 30
0.0
 10
61.4135881156374
 20
74.6831090791286
 30
0.0
 10
61.3954226552465
 20
74.79416420203626
 30
0.0
 10
61.37436022102787
 20
74.84990003438162
 30
0.0
 10
61.36582107968092
 20
74.87249648005104
 30
0.0
 10
61.23480981901835
 20
74.80359440955471
 30
0.0
 10
60.95527110040527
 20
74.65657806608209
 30
0.0
 10
60.55418878968996
 20
74.48449534471729
 30
0.0
 10
60.1774552789123
 20
74.41013572660796
 30
0.0
 10
59.90215136834222
 20
74.18793873800581
 30
0.0
 10
59.85584407008817
 20
73.91633128693161
 30
0.0
 10
59.8028575893538
 20
73.7239052411752
 30
0.0
 10
59.9110134757361
 20
73.58643718980278
 30
0.0
 10
59.99021615343764
 20
73.82478922819581
 30
0.0
 10
60.10342159376921
 20
73.97879694048771
 30
0.0
 10
60.3585907673978
 20
74.24475624766123
 30
0.0
 10
60.72047327380295
 20
74.35335639116335
 30
0.0
 10
61.03706829230596
 20
74.46781964894398
 30
0.0
 10
61.26045541725986
 20
74.53290237794027
 30
0.0
 10
61.37369726991419
 20
74.54015317119524
 30
0.0
 10
61.42656724983554
 20
74.54353839745937
 30
0.0
  0
SPLINE
  5
104F2
330
1F
100
AcDbEntity
  8
0
100
AcDbSpline
210
0.0
220
0.0
230
1.0
 70
     9
 71
     3
 72
    33
 73
    29
 74
     0
 42
0.000000001
 43
0.0000000001
 40
0.0
 40
0.0
 40
0.0
 40
0.0
 40
0.3007916576010246
 40
0.6350100127861947
 40
1.114530367740828
 40
1.3820996430455
 40
1.526782275255344
 40
1.526782275255344
 40
1.526782275255344
 40
1.722157770355995
 40
2.072683573370813
 40
2.216740227433262
 40
2.216740227433262
 40
2.216740227433262
 40
2.272247676488873
 40
2.428569858648011
 40
2.646547856839993
 40
2.747581096500541
 40
2.747581096500541
 40
2.747581096500541
 40
2.906778136832139
 40
3.035541243515442
 40
3.141710266496088
 40
3.30649747899354
 40
3.500662935272881
 40
3.779730306985843
 40
4.00383624031326
 40
4.102748447468554
 40
4.102748447468554
 40
4.102748447468554
 40
4.102748447468554
 10
60.1359621512982
 20
73.39952736243541
 30
0.0
 10
60.16894938116734
 20
73.49684609775616
 30
0.0
 10
60.23858968112794
 20
73.70229850908049
 30
0.0
 10
60.5640997854027
 20
73.91939845332621
 30
0.0
 10
60.90739667082657
 20
74.02514884226912
 30
0.0
 10
61.19946461583919
 20
74.08410596973988
 30
0.0
 10
61.33579664367054
 20
74.10134559289383
 30
0.0
 10
61.38364330315617
 20
74.10739595678728
 30
0.0
 10
61.38296803758343
 20
74.04227429267269
 30
0.0
 10
61.38108126896621
 20
73.86031697526565
 30
0.0
 10
61.37869660526265
 20
73.63034335451146
 30
0.0
 10
61.37698720713179
 20
73.46549139787203
 30
0.0
 10
61.37648931204539
 20
73.417475094525
 30
0.0
 10
61.35813483709163
 20
73.41991880366674
 30
0.0
 10
61.28808979400737
 20
73.42924457912744
 30
0.0
 10
61.14424308551702
 20
73.42455790642046
 30
0.0
 10
60.98638192058046
 20
73.41278920913222
 30
0.0
 10
60.88078752118926
 20
73.40004827128215
 30
0.0
 10
60.84734498690015
 20
73.39601312118531
 30
0.0
 10
60.88707289721995
 20
73.42698109986063
 30
0.0
 10
60.9589338744872
 20
73.48299686292711
 30
0.0
 10
61.08673267058595
 20
73.58075761940938
 30
0.0
 10
60.99543066231949
 20
73.71718606269482
 30
0.0
 10
60.83722366983119
 20
73.75235155312904
 30
0.0
 10
60.62520678745411
 20
73.69946267804562
 30
0.0
 10
60.4321097261814
 20
73.56744370740878
 30
0.0
 10
60.26706691748916
 20
73.45130487255037
 30
0.0
 10
60.1666967544504
 20
73.4116654507126
 30
0.0
 10
60.13596215129819
 20
73.39952736243538
 30
0.0
  0
SPLINE
  5
104F3
330
1F
100
AcDbEntity
  8
0
100
AcDbSpline
210
0.0
220
0.0
230
1.0
 70
     9
 71
     3
 72
    59
 73
    55
 74
     0
 42
0.000000001
 43
0.0000000001
 40
0.0
 40
0.0
 40
0.0
 40
0.0
 40
0.1652314184934606
 40
0.4167148071529939
 40
0.4167148071529939
 40
0.4167148071529939
 40
0.6185849223674281
 40
0.8954268377041783
 40
1.021635648884831
 40
1.307595893306124
 40
1.492284877865872
 40
1.626587283725806
 40
1.626587283725806
 40
1.626587283725806
 40
1.721182201491046
 40
1.920884027138516
 40
2.082005052324342
 40
2.247590981215417
 40
2.670425555894142
 40
3.010671576617093
 40
3.209648384142099
 40
3.319263527156795
 40
3.319263527156795
 40
3.319263527156795
 40
3.537092458065561
 40
3.758627930910081
 40
3.919021730874329
 40
4.146631742244294
 40
4.444694776961386
 40
4.957141095354518
 40
5.297065992872029
 40
5.484856713243754
 40
5.586792762028623
 40
5.586792762028623
 40
5.586792762028623
 40
5.968677977786837
 40
6.603506492952319
 40
7.084129902510969
 40
7.606915836300144
 40
7.884840028536425
 40
7.884840028536425
 40
7.884840028536425
 40
8.382339753888881
 40
8.889385116262937
 40
9.277148647571335
 40
9.277148647571335
 40
9.277148647571335
 40
9.794756837284886
 40
10.31584876483276
 40
10.57000614324013
 40
10.88978327929468
 40
11.05954445294186
 40
11.22290249141311
 40
11.32777016696774
 40
11.32777016696774
 40
11.32777016696774
 40
11.32777016696774
 10
59.63907354047511
 20
72.28814856757262
 30
0.0
 10
59.68549070136027
 20
72.31790618876252
 30
0.0
 10
59.80255510971075
 20
72.39295512006481
 30
0.0
 10
59.92922228309116
 20
72.45056747557595
 30
0.0
 10
60.00566470713474
 20
72.48533597946371
 30
0.0
 10
59.99179744036266
 20
72.4195003042681
 30
0.0
 10
59.95891279358073
 20
72.26337848444285
 30
0.0
 10
59.84991291063574
 20
72.08179863340553
 30
0.0
 10
59.65739746880015
 20
71.95181130702181
 30
0.0
 10
59.56292250165553
 20
71.76695315269822
 30
0.0
 10
59.49102748376269
 20
71.57985555579023
 30
0.0
 10
59.46431592604446
 20
71.47672825175388
 30
0.0
 10
59.4530697715288
 20
71.43330938385372
 30
0.0
 10
59.48446422492783
 20
71.43652721468154
 30
0.0
 10
59.58213633686398
 20
71.44653829303391
 30
0.0
 10
59.72660533934297
 20
71.50776039993999
 30
0.0
 10
59.8549964554398
 20
71.63019519532619
 30
0.0
 10
59.99690386889392
 20
71.83703991188585
 30
0.0
 10
60.26722360364844
 20
72.01182561626308
 30
0.0
 10
60.5737590730806
 20
72.10820646800272
 30
0.0
 10
60.7916551786729
 20
72.13061787659802
 30
0.0
 10
60.89350167889461
 20
72.11460884292657
 30
0.0
 10
60.92967863901241
 20
72.10892226389444
 30
0.0
 10
60.87535281602041
 20
72.06075079944958
 30
0.0
 10
60.76577677076598
 20
71.96358819263713
 30
0.0
 10
60.60122463274723
 20
71.84810098920377
 30
0.0
 10
60.41720210035762
 20
71.76132468473759
 30
0.0
 10
60.20242212147005
 20
71.67979599855005
 30
0.0
 10
59.92136609588397
 20
71.47321464455072
 30
0.0
 10
59.62055479267466
 20
71.23790663858759
 30
0.0
 10
59.39358953155312
 20
70.96496277823224
 30
0.0
 10
59.33344908309935
 20
70.75947960817001
 30
0.0
 10
59.32946494842543
 20
70.66290352154101
 30
0.0
 10
59.3280631899767
 20
70.62892466378229
 30
0.0
 10
59.41519911721127
 20
70.72147004786504
 30
0.0
 10
59.64718582426474
 20
70.96785864540144
 30
0.0
 10
60.02393794679917
 20
71.30525217026309
 30
0.0
 10
60.53062342961654
 20
71.52402589455499
 30
0.0
 10
60.9498732764026
 20
71.61735923895091
 30
0.0
 10
61.21616132983665
 20
71.63725729907605
 30
0.0
 10
61.30858915077628
 20
71.64416385877553
 30
0.0
 10
61.32658985504471
 20
71.80901811854048
 30
0.0
 10
61.36293664706688
 20
72.14188973313355
 30
0.0
 10
61.37576550982855
 20
72.60708307546952
 30
0.0
 10
61.34833780227494
 20
72.90426084790644
 30
0.0
 10
61.3364520635303
 20
73.03304220365745
 30
0.0
 10
61.1655741696609
 20
73.01255296128542
 30
0.0
 10
60.8226682962091
 20
72.97143657464897
 30
0.0
 10
60.3821321668897
 20
72.9874541897341
 30
0.0
 10
60.04272563224533
 20
72.84132636305966
 30
0.0
 10
59.82616686148059
 20
72.72388242683013
 30
0.0
 10
59.66493170767389
 20
72.56252020517272
 30
0.0
 10
59.6485081322289
 20
72.41139222060946
 30
0.0
 10
59.64172537975894
 20
72.32278942635431
 30
0.0
 10
59.63907354047511
 20
72.28814856757264
 30
0.0
  0
SPLINE
  5
104F4
330
1F
100
AcDbEntity
  8
0
100
AcDbSpline
210
0.0
220
0.0
230
1.0
 70
     9
 71
     3
 72
    42
 73
    38
 74
     0
 42
0.000000001
 43
0.0000000001
 40
0.0
 40
0.0
 40
0.0
 40
0.0
 40
0.1065232059431159
 40
0.3289211800261306
 40
0.6449490820886591
 40
0.8350898170191133
 40
1.01635048185851
 40
1.152965689361431
 40
1.152965689361431
 40
1.152965689361431
 40
1.674552597989904
 40
2.371034126733338
 40
2.960471888003311
 40
3.271817362068534
 40
3.397862674618196
 40
3.450166807282268
 40
3.566920272689203
 40
3.825308962482057
 40
4.211437038418365
 40
4.554511043607682
 40
4.699108366906974
 40
4.699108366906974
 40
4.699108366906974
 40
5.172749431217367
 40
5.603188484638976
 40
6.109323610169594
 40
6.670980507181917
 40
6.974885794878984
 40
7.235664237780105
 40
7.482520642165818
 40
7.546955933029675
 40
7.603491346551315
 40
7.699027449055893
 40
7.820217108428785
 40
7.903542900064287
 40
8.025571008471871
 40
8.092261088524733
 40
8.092261088524733
 40
8.092261088524733
 40
8.092261088524733
 10
59.71412769285136
 20
69.81374620272845
 30
0.0
 10
59.71508980571234
 20
69.77820439263367
 30
0.0
 10
59.7180606071893
 20
69.66845878356064
 30
0.0
 10
59.65757535213523
 20
69.45521884152753
 30
0.0
 10
59.50382607303058
 20
69.26442107861084
 30
0.0
 10
59.31903411487201
 20
69.11330780214585
 30
0.0
 10
59.29783776536152
 20
68.93369983306958
 30
0.0
 10
59.30897059306345
 20
68.82913738569934
 30
0.0
 10
59.31375520774775
 20
68.7841990255173
 30
0.0
 10
59.46334730225899
 20
68.87275294416276
 30
0.0
 10
59.81269159328739
 20
69.07955401896597
 30
0.0
 10
60.33822263899756
 20
69.37550259530282
 30
0.0
 10
60.8326452873797
 20
69.57805602716341
 30
0.0
 10
61.11274631103611
 20
69.78166641305858
 30
0.0
 10
61.2291195022502
 20
69.89369175702812
 30
0.0
 10
61.30730049766298
 20
69.9580726290888
 30
0.0
 10
61.31879530573712
 20
70.11131908575911
 30
0.0
 10
61.38323912186725
 20
70.35040411059966
 30
0.0
 10
61.39639929816152
 20
70.6847765249787
 30
0.0
 10
61.36868037777822
 20
70.97605246277623
 30
0.0
 10
61.32175094336791
 20
71.1319313813323
 30
0.0
 10
61.30783609907983
 20
71.1781503674922
 30
0.0
 10
61.15128366095017
 20
71.16003340473963
 30
0.0
 10
60.85245833231957
 20
71.12545197366768
 30
0.0
 10
60.39442644469122
 20
70.97484202678479
 30
0.0
 10
60.04400656708925
 20
70.59969082878041
 30
0.0
 10
59.66220545310381
 20
70.36561270464469
 30
0.0
 10
59.31310030728062
 20
70.17226707303217
 30
0.0
 10
59.25729047869585
 20
69.88240325615075
 30
0.0
 10
59.25337729076314
 20
69.70879705435791
 30
0.0
 10
59.24764590823329
 20
69.56850081324474
 30
0.0
 10
59.32789210314246
 20
69.5432871905289
 30
0.0
 10
59.41955325015796
 20
69.56834810985251
 30
0.0
 10
59.4837455352785
 20
69.64926618149643
 30
0.0
 10
59.56055179314303
 20
69.72740771351152
 30
0.0
 10
59.64816069856799
 20
69.759534897752
 30
0.0
 10
59.69690294067238
 20
69.79959099824077
 30
0.0
 10
59.71412769285136
 20
69.81374620272845
 30
0.0
  0
SPLINE
  5
104F5
330
1F
100
AcDbEntity
  8
0
100
AcDbSpline
210
0.0
220
0.0
230
1.0
 70
     9
 71
     3
 72
    25
 73
    21
 74
     0
 42
0.000000001
 43
0.0000000001
 40
0.0
 40
0.0
 40
0.0
 40
0.0
 40
0.6621542566884982
 40
1.196377272221687
 40
1.969640996249328
 40
2.696549958074216
 40
3.189898788007946
 40
3.595787448599196
 40
3.854514077339553
 40
4.149975478719126
 40
4.474314044058085
 40
4.720067941273735
 40
4.9564427453566
 40
5.152093910022499
 40
5.152093910022499
 40
5.152093910022499
 40
6.298209510133562
 40
7.910192356555327
 40
8.724076890356755
 40
9.28084103387426
 40
9.28084103387426
 40
9.28084103387426
 40
9.28084103387426
 10
61.15019727735914
 20
69.10110828096936
 30
0.0
 10
60.94611828102877
 20
69.01789149630705
 30
0.0
 10
60.57738928701986
 20
68.86753579167827
 30
0.0
 10
59.91363263482838
 20
68.75297417976317
 30
0.0
 10
59.42531582322423
 20
68.23418464062346
 30
0.0
 10
59.07073195316828
 20
67.65615455906587
 30
0.0
 10
59.11241909636046
 20
67.06497330686494
 30
0.0
 10
59.39179943768891
 20
66.78601520585107
 30
0.0
 10
59.54051840981833
 20
66.49031469241496
 30
0.0
 10
59.50842168564078
 20
66.19210287228009
 30
0.0
 10
59.56496675766056
 20
65.90267261839483
 30
0.0
 10
59.70980403123583
 20
65.67214392347323
 30
0.0
 10
59.75723519486661
 20
65.44834082182727
 30
0.0
 10
59.7744725897292
 20
65.30560562930036
 30
0.0
 10
59.7822788713526
 20
65.24096528664319
 30
0.0
 10
59.98152670631128
 20
65.56790646571392
 30
0.0
 10
60.46101162390714
 20
66.3546822133045
 30
0.0
 10
60.83757539191712
 20
67.49559532639685
 30
0.0
 10
61.06060267365603
 20
68.46460072798945
 30
0.0
 10
61.12431643737754
 20
68.917242853311
 30
0.0
 10
61.15019727735914
 20
69.10110828096936
 30
0.0
  0
CIRCLE
  5
104F6
330
1F
100
AcDbEntity
  8
0
100
AcDbCircle
 10
59.96853365752702
 20
81.8707199570467
 30
0.0
 40
0.3253297764100864
  0
MTEXT
  5
10501
330
1F
100
AcDbEntity
  8
0
100
AcDbMText
 10
46.24801586747238
 20
62.32572295754784
 30
0.0
 40
1.596725083724816
 41
18.07567617970225
 71
     1
 72
     5
  1
{\fTimes New Roman|b0|i0|c162|p18;templatesarea.com}
 73
     1
 44
1.0
1001
ACAD
1000
ACAD_MTEXT_COLUMN_INFO_BEGIN
1070
    75
1070
     2
1070
    79
1070
     0
1070
    76
1070
     1
1070
    78
1070
     0
1070
    48
1040
18.07567617970225
1070
    49
1040
7.983625418624081
1070
    50
1070
     1
1040
0.0
1000
ACAD_MTEXT_COLUMN_INFO_END
1000
MTEXTBEGIN
1070
    73
1070
     1
1070
    44
1040
1.0
1070
    74
1070
     0
1000
MTEXTEND
  0
LWPOLYLINE
  5
10510
330
1F
100
AcDbEntity
  8
0
100
AcDbPolyline
 90
        2
 70
     1
 43
0.0
 10
54.68796673047283
 20
92.97355580763426
 42
0.2611390702405259
 10
55.46551013154344
 20
94.62092653850985
 42
0.2611390702405182
  0
LWPOLYLINE
  5
10511
330
1F
100
AcDbEntity
  8
0
100
AcDbPolyline
 90
        2
 70
     1
 43
0.0
 10
55.15824746163097
 20
92.48668460435984
 42
0.2611390702405326
 10
56.93100414339603
 20
92.90589554499911
 42
0.2611390702405218
  0
LWPOLYLINE
  5
10512
330
1F
100
AcDbEntity
  8
0
100
AcDbPolyline
 90
        2
 70
     1
 43
0.0
 10
55.07081146689174
 20
91.81544509308205
 42
0.261139070240529
 10
56.50385949033597
 20
90.69082185483877
 42
0.2611390702405176
  0
LWPOLYLINE
  5
10513
330
1F
100
AcDbEntity
  8
0
100
AcDbPolyline
 90
        2
 70
     1
 43
0.0
 10
54.49149983366305
 20
91.46529431658377
 42
0.2611390702405341
 10
54.50572480828059
 20
89.64370113598841
 42
0.2611390702405257
  0
LWPOLYLINE
  5
10514
330
1F
100
AcDbEntity
  8
0
100
AcDbPolyline
 90
        2
 70
     1
 43
0.0
 10
53.85654603756981
 20
91.69990295134232
 42
0.2611390702405348
 10
52.44123626733705
 20
90.55303664711241
 42
0.2611390702405195
  0
LWPOLYLINE
  5
10515
330
1F
100
AcDbEntity
  8
0
100
AcDbPolyline
 90
        2
 70
     1
 43
0.0
 10
53.64408323776728
 20
92.34260591024057
 42
0.2611390702405287
 10
51.86499584672744
 20
92.73408020127035
 42
0.2611390702405215
  0
LWPOLYLINE
  5
10516
330
1F
100
AcDbEntity
  8
0
100
AcDbPolyline
 90
        2
 70
     1
 43
0.0
 10
54.01410025595804
 20
92.90943475647697
 42
0.2611390702405309
 10
53.21092433633319
 20
94.5444615170008
 42
0.2611390702405202
  0
SPLINE
  5
10517
330
1F
100
AcDbEntity
  8
0
100
AcDbSpline
210
0.0
220
0.0
230
1.0
 70
    13
 71
     2
 72
    10
 73
     7
 74
     0
 42
0.000000001
 43
0.0000000001
 40
0.0
 40
0.0
 40
0.0
 40
0.2951145716602799
 40
0.2951145716602799
 40
0.6289569946119187
 40
0.6289569946119187
 40
0.9822023844283105
 40
0.9822023844283105
 40
0.9822023844283105
 10
62.58396711584246
 20
91.60352080976645
 30
0.0
 41
1.0
 10
62.4890236840067
 20
90.39041811584054
 30
0.0
 41
0.9891331622926051
 10
62.04514346619669
 20
89.25735483275166
 30
0.0
 41
1.0
 10
61.78600364947894
 20
89.94517771883925
 30
0.0
 41
0.986100971616327
 10
61.30625665717023
 20
90.60584098689327
 30
0.0
 41
1.0
 10
62.0532100623359
 20
91.0418681404745
 30
0.0
 41
0.9844427181800456
 10
62.58396711584246
 20
91.60352080976645
 30
0.0
 41
1.0
  0
SPLINE
  5
10518
330
1F
100
AcDbEntity
  8
0
100
AcDbSpline
210
0.0
220
0.0
230
1.0
 70
    13
 71
     2
 72
    14
 73
    11
 74
     0
 42
0.000000001
 43
0.0000000001
 40
0.0
 40
0.0
 40
0.0
 40
0.6031585169586951
 40
0.6031585169586951
 40
1.261711637553858
 40
1.261711637553858
 40
1.563053002012141
 40
1.563053002012141
 40
2.194385024704242
 40
2.194385024704242
 40
2.797504316662394
 40
2.797504316662394
 40
2.797504316662394
 10
57.59688201603458
 20
89.60203229218269
 30
0.0
 41
1.0
 10
59.12680798029453
 20
89.60841558857559
 30
0.0
 41
0.9548685951956688
 10
60.55526826066489
 20
90.2267405934349
 30
0.0
 41
1.0
 10
61.40163904587737
 20
89.13872782911914
 30
0.0
 41
0.946276521537255
 10
61.49279053771818
 20
88.11649945579308
 30
0.0
 41
1.0
 10
60.86609356771292
 20
87.04297482749735
 30
0.0
 41
0.9886706300618989
 10
59.94882286314657
 20
86.20371534926391
 30
0.0
 41
1.0
 10
58.96252530852324
 20
86.06670701486478
 30
0.0
 41
0.9505898267713806
 10
57.75026213584123
 20
86.58249198786652
 30
0.0
 41
1.0
 10
57.98229436069693
 20
88.12154169514604
 30
0.0
 41
0.9548744204847519
 10
57.59688201603458
 20
89.60203229218269
 30
0.0
 41
1.0
  0
SPLINE
  5
10519
330
1F
100
AcDbEntity
  8
0
100
AcDbSpline
210
0.0
220
0.0
230
1.0
 70
    13
 71
     2
 72
    12
 73
     9
 74
     0
 42
0.000000001
 43
0.0000000001
 40
0.0
 40
0.0
 40
0.0
 40
0.2923481900079938
 40
0.2923481900079938
 40
0.9347481469192091
 40
0.9347481469192091
 40
1.577175680572289
 40
1.577175680572289
 40
1.869495413949774
 40
1.869495413949774
 40
1.869495413949774
 10
55.45475181169994
 20
89.9766976204726
 30
0.0
 41
1.0
 10
56.03456146886523
 20
89.74561963851101
 30
0.0
 41
0.9893355760551216
 10
56.72117708909623
 20
89.65586965556775
 30
0.0
 41
1.0
 10
57.10127028416284
 20
88.37945095157733
 30
0.0
 41
0.9488572616525587
 10
56.95937954607709
 20
86.98545768049649
 30
0.0
 41
1.0
 10
55.75555082857675
 20
87.70262390025704
 30
0.0
 41
0.9488529084992567
 10
54.95735201657973
 20
88.76879902036979
 30
0.0
 41
1.0
 10
55.29460530033169
 20
89.37349379740174
 30
0.0
 41
0.9893376483674853
 10
55.45475181169992
 20
89.97669762047257
 30
0.0
 41
1.0
  0
SPLINE
  5
1051A
330
1F
100
AcDbEntity
  8
0
100
AcDbSpline
210
0.0
220
0.0
230
1.0
 70
    13
 71
     2
 72
    12
 73
     9
 74
     0
 42
0.000000001
 43
0.0000000001
 40
0.0
 40
0.0
 40
0.0
 40
0.6423999569114756
 40
0.6423999569114756
 40
1.28482749056451
 40
1.28482749056451
 40
1.577147223942336
 40
1.577147223942336
 40
1.869495413950672
 40
1.869495413950672
 40
1.869495413950672
 10
53.36727667354103
 20
95.22075231504507
 30
0.0
 41
1.0
 10
53.57864185785127
 20
96.53568208643799
 30
0.0
 41
0.9488572616525177
 10
54.3113120082718
 20
97.73006254176099
 30
0.0
 41
1.0
 10
55.0847574440279
 20
96.56159639943943
 30
0.0
 41
0.9488529084992638
 10
55.34131367636532
 20
95.25468032337736
 30
0.0
 41
1.0
 10
54.77509173622395
 20
94.85619787047269
 30
0.0
 41
0.9893376483674604
 10
54.36908438497354
 20
94.38221497204466
 30
0.0
 41
1.0
 10
53.94695491339916
 20
94.84197902187768
 30
0.0
 41
0.9893355760550967
 10
53.36727667353985
 20
95.22075231504699
 30
0.0
 41
1.0
  0
SPLINE
  5
1051B
330
1F
100
AcDbEntity
  8
0
100
AcDbSpline
210
0.0
220
0.0
230
1.0
 70
    12
 71
     2
 72
    14
 73
    11
 74
     0
 42
0.000000001
 43
0.0000000001
 40
0.0
 40
0.0
 40
0.0
 40
0.8347332563041423
 40
0.8347332563041423
 40
1.437852548258836
 40
1.437852548258836
 40
2.041011065217689
 40
2.041011065217689
 40
2.887304355843971
 40
2.887304355843971
 40
3.077968541527387
 40
3.077968541527387
 40
3.077968541527387
 10
58.60780983237988
 20
99.27610178972793
 30
0.0
 41
1.0
 10
59.31801790090131
 20
98.2912670768769
 30
0.0
 41
0.9141595579959982
 10
59.00153089902464
 20
96.53077055816394
 30
0.0
 41
1.0
 10
57.44943635377143
 20
96.41451447242809
 30
0.0
 41
0.9548744204852651
 10
56.09182706189852
 20
95.70932506955548
 30
0.0
 41
1.0
 10
55.7451632536221
 20
97.19947217860955
 30
0.0
 41
0.9548685951956455
 10
54.82447863187694
 20
98.45452771981607
 30
0.0
 41
1.0
 10
55.97422202688566
 20
99.86107559731067
 30
0.0
 41
0.9118013444961135
 10
57.1980149527926
 20
99.942237585119
 30
0.0
 41
1.0
 10
57.93478047169005
 20
99.6765332261345
 30
0.0
 41
0.9954593364749538
 10
58.60780983253462
 20
99.27610178963588
 30
0.0
 41
1.0
  0
SPLINE
  5
1051C
330
1F
100
AcDbEntity
  8
0
100
AcDbSpline
210
0.0
220
0.0
230
1.0
 70
    13
 71
     2
 72
    10
 73
     7
 74
     0
 42
0.000000001
 43
0.0000000001
 40
0.0
 40
0.0
 40
0.0
 40
0.345768266805651
 40
0.345768266805651
 40
0.7361323723894398
 40
0.7361323723894398
 40
1.143672289269209
 40
1.143672289269209
 40
1.143672289269209
 10
59.82118432162583
 20
98.39439651780148
 30
0.0
 41
1.0
 10
60.89622560615094
 20
97.4513550058951
 30
0.0
 41
0.9850927239665983
 10
61.58783216448291
 20
96.19999053701619
 30
0.0
 41
1.0
 10
60.79990960295368
 20
96.50082569927759
 30
0.0
 41
0.9810123775535675
 10
59.8428611546928
 20
96.54404717265791
 30
0.0
 41
1.0
 10
59.98736913240472
 20
97.53490669222998
 30
0.0
 41
0.9793106398626832
 10
59.82118432162579
 20
98.39439651780152
 30
0.0
 41
1.0
  0
SPLINE
  5
1051D
330
1F
100
AcDbEntity
  8
0
100
AcDbSpline
210
0.0
220
0.0
230
1.0
 70
    13
 71
     2
 72
    14
 73
    11
 74
     0
 42
0.000000001
 43
0.0000000001
 40
0.0
 40
0.0
 40
0.0
 40
0.6031585169588869
 40
0.6031585169588869
 40
1.206277808913577
 40
1.206277808913577
 40
1.937258109659337
 40
1.937258109659337
 40
2.182406449439451
 40
2.182406449439451
 40
2.944108814053354
 40
2.944108814053354
 40
2.944108814053354
 10
59.6710201707795
 20
95.72053557210082
 30
0.0
 41
1.0
 10
59.26381570880458
 20
94.2182010186876
 30
0.0
 41
0.9548685951956402
 10
58.3149131345712
 20
93.01807681378031
 30
0.0
 41
1.0
 10
59.71270795923122
 20
92.39633352957284
 30
0.0
 41
0.9548744204852658
 10
60.77131574757396
 20
91.25534163418732
 30
0.0
 41
1.0
 10
62.12950276481764
 20
91.98910230645271
 30
0.0
 41
0.933948690131497
 10
62.57364835204096
 20
93.00067759358791
 30
0.0
 41
1.0
 10
62.48011681138075
 20
94.00483286104023
 30
0.0
 41
0.9924971872874747
 10
62.14552700482599
 20
94.95627717852284
 30
0.0
 41
1.0
 10
61.28607079500016
 20
95.70103148422919
 30
0.0
 41
0.9283485782597836
 10
59.67102017077997
 20
95.72053557210066
 30
0.0
 41
1.0
  0
SPLINE
  5
1051E
330
1F
100
AcDbEntity
  8
0
100
AcDbSpline
210
0.0
220
0.0
230
1.0
 70
    13
 71
     2
 72
    12
 73
     9
 74
     0
 42
0.000000001
 43
0.0000000001
 40
0.0
 40
0.0
 40
0.0
 40
0.2923481900079929
 40
0.2923481900079929
 40
0.5846679233855827
 40
0.5846679233855827
 40
1.227095457038718
 40
1.227095457038718
 40
1.869495413950149
 40
1.869495413950149
 40
1.869495413950149
 10
57.72682829756014
 20
92.36699017957707
 30
0.0
 41
1.0
 10
57.22856109833322
 20
91.88613067040831
 30
0.0
 41
0.9893355760551216
 10
56.68639164886868
 20
91.57689199178463
 30
0.0
 41
1.0
 10
57.05814567144923
 20
91.0755929752627
 30
0.0
 41
0.9893376483674776
 10
57.32064110235412
 20
90.43489671374278
 30
0.0
 41
1.0
 10
58.65187919621812
 20
90.39420435984496
 30
0.0
 41
0.948852908499248
 10
59.96315725353575
 20
90.88824972642759
 30
0.0
 41
1.0
 10
58.96175685603104
 20
91.86832496091225
 30
0.0
 41
0.9488572616525246
 10
57.72682829755989
 20
92.36699017957718
 30
0.0
 41
1.0
  0
SPLINE
  5
1051F
330
1F
100
AcDbEntity
  8
0
100
AcDbSpline
210
0.0
220
0.0
230
1.0
 70
    13
 71
     2
 72
    12
 73
     9
 74
     0
 42
0.000000001
 43
0.0000000001
 40
0.0
 40
0.0
 40
0.0
 40
0.6423999569113335
 40
0.6423999569113335
 40
0.934748146919329
 40
0.934748146919329
 40
1.227067880296836
 40
1.227067880296836
 40
1.869495413949977
 40
1.869495413949977
 40
1.869495413949977
 10
58.78465633015259
 20
95.67004874386791
 30
0.0
 41
1.0
 10
57.39403972122341
 20
95.49818930029815
 30
0.0
 41
0.94885726165254
 10
56.2342021918286
 20
94.84359595306594
 30
0.0
 41
1.0
 10
56.29948877742217
 20
94.15422396993561
 30
0.0
 41
0.9893355760551212
 10
56.20322418934647
 20
93.53753166304974
 30
0.0
 41
1.0
 10
56.82694038447259
 20
93.51562583715406
 30
0.0
 41
0.9893376483674837
 10
57.49152011663196
 20
93.32138544389293
 30
0.0
 41
1.0
 10
58.35334805537529
 20
94.33681802866777
 30
0.0
 41
0.9488529084992471
 10
58.78465633015217
 20
95.67004874386809
 30
0.0
 41
1.0
  0
SPLINE
  5
10520
330
1F
100
AcDbEntity
  8
0
100
AcDbSpline
210
0.0
220
0.0
230
1.0
 70
    13
 71
     2
 72
    10
 73
     7
 74
     0
 42
0.000000001
 43
0.0000000001
 40
0.0
 40
0.0
 40
0.0
 40
0.2528397985621376
 40
0.2528397985621376
 40
0.5457546597785506
 40
0.5457546597785506
 40
0.846831142835342
 40
0.846831142835342
 40
0.846831142835342
 10
58.925821823425
 20
85.40685402069891
 30
0.0
 41
1.0
 10
58.05658643092157
 20
84.83420775862271
 30
0.0
 41
0.9920196415328918
 10
57.07165312949688
 20
84.4970804098345
 30
0.0
 41
1.0
 10
57.38564783725422
 20
85.07027721049359
 30
0.0
 41
0.9892942673507027
 10
57.57599228363368
 20
85.75930131359559
 30
0.0
 41
1.0
 10
58.26150721301947
 20
85.49403066337076
 30
0.0
 41
0.9886905009056663
 10
58.925821823425
 20
85.40685402069891
 30
0.0
 41
1.0
  0
SPLINE
  5
10521
330
1F
100
AcDbEntity
  8
0
100
AcDbSpline
210
0.0
220
0.0
230
1.0
 70
    13
 71
     2
 72
    14
 73
    11
 74
     0
 42
0.000000001
 43
0.0000000001
 40
0.0
 40
0.0
 40
0.0
 40
0.6031585169589065
 40
0.6031585169589065
 40
1.205138561323075
 40
1.205138561323075
 40
1.529826735794178
 40
1.529826735794178
 40
2.12981923824113
 40
2.12981923824113
 40
2.732938530195884
 40
2.732938530195884
 40
2.732938530195884
 10
54.47842578371215
 20
88.03354270413501
 30
0.0
 41
1.0
 10
55.43730968210933
 20
86.84137833963408
 30
0.0
 41
0.9548685951956374
 10
56.81136605447727
 20
86.11008245574934
 30
0.0
 41
1.0
 10
56.51800267439648
 20
84.89272707094015
 30
0.0
 41
0.9550434494299627
 10
55.866866780508
 20
84.18460112073692
 30
0.0
 41
1.0
 10
54.54641540501834
 20
83.94736738638389
 30
0.0
 41
0.986851115663287
 10
53.21923386740042
 20
84.1435181052479
 30
0.0
 41
1.0
 10
52.54723453168209
 20
84.82866391980374
 30
0.0
 41
0.9553375969581063
 10
52.21328505172448
 20
86.03097271164154
 30
0.0
 41
1.0
 10
53.56123229186413
 20
86.80914441035321
 30
0.0
 41
0.9548744204852564
 10
54.47842578371233
 20
88.03354270413482
 30
0.0
 41
1.0
  0
SPLINE
  5
10522
330
1F
100
AcDbEntity
  8
0
100
AcDbSpline
210
0.0
220
0.0
230
1.0
 70
    13
 71
     2
 72
    12
 73
     9
 74
     0
 42
0.000000001
 43
0.0000000001
 40
0.0
 40
0.0
 40
0.0
 40
0.2923481900083313
 40
0.2923481900083313
 40
0.9347481469194978
 40
0.9347481469194978
 40
1.577175680565098
 40
1.577175680565098
 40
1.869495413944949
 40
1.869495413944949
 40
1.869495413944949
 10
53.43575459610239
 20
89.94192754872813
 30
0.0
 41
1.0
 10
53.61659596316162
 20
89.34453933972946
 30
0.0
 41
0.9893355760550969
 10
53.97452443795716
 20
88.75176343239578
 30
0.0
 41
1.0
 10
53.2135643412454
 20
87.65876056138234
 30
0.0
 41
0.9488572616525665
 10
52.03522908739126
 20
86.90055461910986
 30
0.0
 41
1.0
 10
51.84535728761886
 20
88.28889163419168
 30
0.0
 41
0.9488529085004373
 10
52.18125774320133
 20
89.57769790905372
 30
0.0
 41
1.0
 10
52.86430114023449
 20
89.69104370099429
 30
0.0
 41
0.9893376483673129
 10
53.43575459610237
 20
89.94192754872813
 30
0.0
 41
1.0
  0
SPLINE
  5
10523
330
1F
100
AcDbEntity
  8
0
100
AcDbSpline
210
0.0
220
0.0
230
1.0
 70
    13
 71
     2
 72
    10
 73
     7
 74
     0
 42
0.000000001
 43
0.0000000001
 40
0.0
 40
0.0
 40
0.0
 40
0.2497828312808274
 40
0.2497828312808274
 40
0.5465100428976175
 40
0.5465100428976175
 40
0.8369860252569566
 40
0.8369860252569566
 40
0.8369860252569566
 10
52.00303958918353
 20
84.41917103221502
 30
0.0
 41
1.0
 10
51.02035709812016
 20
84.72212023322029
 30
0.0
 41
0.992211199106099
 10
50.14310445487374
 20
85.25843565307088
 30
0.0
 41
1.0
 10
50.79497267324895
 20
85.36948088281262
 30
0.0
 41
0.9890142936605339
 10
51.46103319088223
 20
85.65397137815049
 30
0.0
 41
1.0
 10
51.67318935487746
 20
84.9776714457179
 30
0.0
 41
0.9894714899262101
 10
52.00303958918353
 20
84.41917103221502
 30
0.0
 41
1.0
  0
SPLINE
  5
10524
330
1F
100
AcDbEntity
  8
0
100
AcDbSpline
210
0.0
220
0.0
230
1.0
 70
    13
 71
     2
 72
    14
 73
    11
 74
     0
 42
0.000000001
 43
0.0000000001
 40
0.0
 40
0.0
 40
0.0
 40
0.6031585169588692
 40
0.6031585169588692
 40
1.225531099511882
 40
1.225531099511882
 40
1.532355807015177
 40
1.532355807015177
 40
2.179510460179951
 40
2.179510460179951
 40
2.7826297521348
 40
2.7826297521348
 40
2.7826297521348
 10
51.30780558545744
 20
89.49371270079353
 30
0.0
 41
1.0
 10
50.97358828483137
 20
88.00072475758929
 30
0.0
 41
0.9548685951956429
 10
51.25854827516142
 20
86.47048870124292
 30
0.0
 41
1.0
 10
50.08287967516046
 20
85.92170601705523
 30
0.0
 41
0.9519710114681133
 10
49.10163177963251
 20
86.0135408675956
 30
0.0
 41
1.0
 10
48.13799413940194
 20
86.83503840200257
 30
0.0
 41
0.9882553864558797
 10
47.4676306756829
 20
87.90904782274342
 30
0.0
 41
1.0
 10
47.5364679371555
 20
88.92031140327025
 30
0.0
 41
0.9481040393610145
 10
48.32984117331005
 20
90.01608906945284
 30
0.0
 41
1.0
 10
49.77867166380004
 20
89.44740359864919
 30
0.0
 41
0.9548744204852424
 10
51.30780558545743
 20
89.49371270079353
 30
0.0
 41
1.0
  0
SPLINE
  5
10525
330
1F
100
AcDbEntity
  8
0
100
AcDbSpline
210
0.0
220
0.0
230
1.0
 70
    13
 71
     2
 72
    12
 73
     9
 74
     0
 42
0.000000001
 43
0.0000000001
 40
0.0
 40
0.0
 40
0.0
 40
0.2923481900144384
 40
0.2923481900144384
 40
0.9347481469257203
 40
0.9347481469257203
 40
1.577175680578795
 40
1.577175680578795
 40
1.869495413956312
 40
1.869495413956312
 40
1.869495413956312
 10
52.14974608545863
 20
91.49876434975499
 30
0.0
 41
1.0
 10
51.79544192451638
 20
90.98491141958332
 30
0.0
 41
0.9893355760546521
 10
51.55515581194177
 20
90.33548193649025
 30
0.0
 41
1.0
 10
50.22616089704424
 20
90.24894835354913
 30
0.0
 41
0.9488572616525484
 10
48.8986916072324
 20
90.69747427919883
 30
0.0
 41
1.0
 10
49.86575406309275
 20
91.7115360003528
 30
0.0
 41
0.9488529084992574
 10
51.08281389209287
 20
92.25247601815059
 30
0.0
 41
1.0
 10
51.59730179289153
 20
91.78912113180222
 30
0.0
 41
0.9893376483674829
 10
52.14974608545863
 20
91.49876434975501
 30
0.0
 41
1.0
  0
SPLINE
  5
10526
330
1F
100
AcDbEntity
  8
0
100
AcDbSpline
210
0.0
220
0.0
230
1.0
 70
    13
 71
     2
 72
    10
 73
     7
 74
     0
 42
0.000000001
 43
0.0000000001
 40
0.0
 40
0.0
 40
0.0
 40
0.2878780471098494
 40
0.2878780471098494
 40
0.6326148179374158
 40
0.6326148179374158
 40
0.9590611639822723
 40
0.9590611639822723
 40
0.9590611639822723
 10
46.88450831381378
 20
89.02660674205398
 30
0.0
 41
1.0
 10
46.41821478821694
 20
90.11780866705322
 30
0.0
 41
0.9896586519790403
 10
46.28110832764217
 20
91.29641793371092
 30
0.0
 41
1.0
 10
46.82325682878008
 20
90.76913080739307
 30
0.0
 41
0.9851813140822322
 10
47.56606829819105
 20
90.36916677028726
 30
0.0
 41
1.0
 10
47.11966237004304
 20
89.70763825076517
 30
0.0
 41
0.9867086460483708
 10
46.88450831381382
 20
89.02660674205401
 30
0.0
 41
1.0
  0
SPLINE
  5
10527
330
1F
100
AcDbEntity
  8
0
100
AcDbSpline
210
0.0
220
0.0
230
1.0
 70
    13
 71
     2
 72
    14
 73
    11
 74
     0
 42
0.000000001
 43
0.0000000001
 40
0.0
 40
0.0
 40
0.0
 40
0.6031585169588532
 40
0.6031585169588532
 40
1.317796960535886
 40
1.317796960535886
 40
1.571907725148492
 40
1.571907725148492
 40
2.318275388095551
 40
2.318275388095551
 40
2.921394680050244
 40
2.921394680050244
 40
2.921394680050244
 10
50.47256309942124
 20
92.88300449263505
 30
0.0
 41
1.0
 10
49.09691704393392
 20
92.21344334336411
 30
0.0
 41
0.9548685951956452
 10
48.07819996738316
 20
91.03656607611185
 30
0.0
 41
1.0
 10
46.72930090014847
 20
91.70634680415409
 30
0.0
 41
0.9368378286929813
 10
46.23785030122533
 20
92.67627851052422
 30
0.0
 41
1.0
 10
46.29338585834832
 20
93.72056474267649
 30
0.0
 41
0.9919393173520932
 10
46.60981278052844
 20
94.71736520972578
 30
0.0
 41
1.0
 10
47.44654384764814
 20
95.463507073349
 30
0.0
 41
0.9311712995616144
 10
49.02424294886746
 20
95.53696716231248
 30
0.0
 41
1.0
 10
49.4829577796106
 20
94.04965628057604
 30
0.0
 41
0.9548744204852653
 10
50.47256309942125
 20
92.88300449263505
 30
0.0
 41
1.0
  0
SPLINE
  5
10528
330
1F
100
AcDbEntity
  8
0
100
AcDbSpline
210
0.0
220
0.0
230
1.0
 70
    13
 71
     2
 72
    12
 73
     9
 74
     0
 42
0.000000001
 43
0.0000000001
 40
0.0
 40
0.0
 40
0.0
 40
0.2923481900112161
 40
0.2923481900112161
 40
0.9347481469131437
 40
0.9347481469131437
 40
1.577175680566043
 40
1.577175680566043
 40
1.869495413946758
 40
1.869495413946758
 40
1.869495413946758
 10
52.56511691807637
 20
93.47487815869675
 30
0.0
 41
1.0
 10
51.94246548881306
 20
93.43150224447404
 30
0.0
 41
0.9893355760548868
 10
51.28490513257684
 20
93.21445283235409
 30
0.0
 41
1.0
 10
50.38863567696028
 20
94.19955009039439
 30
0.0
 41
0.9488572616540249
 10
49.91164380186536
 20
95.51705871367003
 30
0.0
 41
1.0
 10
51.30742275961814
 20
95.39323598176066
 30
0.0
 41
0.9488529084992853
 10
52.48917108729258
 20
94.77897087591571
 30
0.0
 41
1.0
 10
52.44768360891701
 20
94.08783099144921
 30
0.0
 41
0.9893376483672501
 10
52.56511691807637
 20
93.47487815869673
 30
0.0
 41
1.0
  0
SPLINE
  5
10529
330
1F
100
AcDbEntity
  8
0
100
AcDbSpline
210
0.0
220
0.0
230
1.0
 70
    13
 71
     2
 72
    10
 73
     7
 74
     0
 42
0.000000001
 43
0.0000000001
 40
0.0
 40
0.0
 40
0.0
 40
0.3396076319695398
 40
0.3396076319695398
 40
0.7411498701473942
 40
0.7411498701473942
 40
1.124100656015141
 40
1.124100656015141
 40
1.124100656015141
 10
47.12122369843799
 20
95.96250492645651
 30
0.0
 41
1.0
 10
47.75953827793536
 20
97.21276103670664
 30
0.0
 41
0.9856179388152179
 10
48.77812555459179
 20
98.17910554665202
 30
0.0
 41
1.0
 10
48.64823642412453
 20
97.32464250528778
 30
0.0
 41
0.9799130887572054
 10
48.82408561256103
 20
96.35424918726949
 30
0.0
 41
1.0
 10
47.88768440480604
 20
96.27957320260279
 30
0.0
 41
0.9817245253337015
 10
47.12122369843797
 20
95.96250492645649
 30
0.0
 41
1.0
  0
SPLINE
  5
1052A
330
1F
100
AcDbEntity
  8
0
100
AcDbSpline
210
0.0
220
0.0
230
1.0
 70
    12
 71
     2
 72
    14
 73
    11
 74
     0
 42
0.000000001
 43
0.0000000001
 40
0.0
 40
0.0
 40
0.0
 40
0.196078289865639
 40
0.196078289865639
 40
1.03499324049233
 40
1.03499324049233
 40
1.63811253244719
 40
1.63811253244719
 40
2.241271049406118
 40
2.241271049406118
 40
3.064899744478401
 40
3.064899744478401
 40
3.064899744478401
 10
49.94736651821947
 20
99.10170390715762
 30
0.0
 41
1.0
 10
50.62247070878561
 20
99.54111323278301
 30
0.0
 41
0.9951980111421738
 10
51.37029669974747
 20
99.84065519168314
 30
0.0
 41
1.0
 10
52.58784741845295
 20
99.78896092857262
 30
0.0
 41
0.9133100260373659
 10
53.77359167818172
 20
98.43627318090426
 30
0.0
 41
1.0
 10
52.8967692255534
 20
97.15031231779697
 30
0.0
 41
0.9548744204852404
 10
52.60165295343063
 20
95.64921223144924
 30
0.0
 41
1.0
 10
51.2204676809295
 20
96.3072710780715
 30
0.0
 41
0.9548685951956343
 10
49.66518827418181
 20
96.36996518607546
 30
0.0
 41
1.0
 10
49.29388681326426
 20
98.09235979012957
 30
0.0
 41
0.9163960978464029
 10
49.94736651832511
 20
99.10170390717713
 30
0.0
 41
1.0
  0
SPLINE
  5
1052B
330
1F
100
AcDbEntity
  8
0
100
AcDbSpline
210
0.0
220
0.0
230
1.0
 70
    13
 71
     2
 72
    10
 73
     7
 74
     0
 42
0.000000001
 43
0.0000000001
 40
0.0
 40
0.0
 40
0.0
 40
0.3657523497228894
 40
0.3657523497228894
 40
0.7873351271153198
 40
0.7873351271153198
 40
1.207313395040111
 40
1.207313395040111
 40
1.207313395040111
 10
52.7808851651579
 20
100.2631529996704
 30
0.0
 41
1.0
 10
54.26525558775655
 20
100.5656806452847
 30
0.0
 41
0.9833247037769744
 10
55.75970335964945
 20
100.3176278133708
 30
0.0
 41
1.0
 10
54.97016565742471
 20
99.88299636143603
 30
0.0
 41
0.9778656356645738
 10
54.28777243739498
 20
99.1023294956776
 30
0.0
 41
1.0
 10
53.58167486305422
 20
99.85606413511376
 30
0.0
 41
0.9780331797995204
 10
52.78088516515795
 20
100.26315299967
 30
0.0
 41
1.0
  0
CIRCLE
  5
10622
330
1F
100
AcDbEntity
  8
0
100
AcDbCircle
 10
84.06130088082305
 20
57.81742434203643
 30
0.0
 40
0.7356796753234514
  0
LWPOLYLINE
  5
10642
330
1F
100
AcDbEntity
  8
0
100
AcDbPolyline
 90
        2
 70
     1
 43
0.0
 10
82.90469811507822
 20
51.44908102969921
 42
0.2811925436251226
 10
77.50708157778785
 20
40.90525991108072
 42
0.2811925436251226
  0
LWPOLYLINE
  5
10644
330
1F
100
AcDbEntity
  8
0
100
AcDbPolyline
 90
        2
 70
     1
 43
0.0
 10
83.84006205468367
 20
35.89172777202964
 42
0.3054176833858926
 10
81.17562167657103
 20
28.70512320327825
 42
0.3054176833858919
  0
LWPOLYLINE
  5
10645
330
1F
100
AcDbEntity
  8
0
100
AcDbPolyline
 90
        2
 70
     1
 43
0.0
 10
83.86049701662185
 20
28.70512320327835
 42
0.2729798547009189
 10
84.4458348278845
 20
20.97343150586863
 42
0.2729798547009167
  0
LWPOLYLINE
  5
10646
330
1F
100
AcDbEntity
  8
0
100
AcDbPolyline
 90
        2
 70
     1
 43
0.0
 10
88.26128991817425
 20
26.14130953167592
 42
0.2507505087961348
 10
85.27345078636399
 20
33.307788759126
 42
0.2507505087961318
  0
LWPOLYLINE
  5
10647
330
1F
100
AcDbEntity
  8
0
100
AcDbPolyline
 90
        2
 70
     1
 43
0.0
 10
89.93664717643548
 20
31.30918755748402
 42
0.2841462430229371
 10
84.84958013647315
 20
41.12013663206252
 42
0.2841462430229333
  0
LWPOLYLINE
  5
10648
330
1F
100
AcDbEntity
  8
0
100
AcDbPolyline
 90
        2
 70
     1
 43
0.0
 10
84.4458348278845
 20
47.62046706240397
 42
0.2862470652524783
 10
91.24881942934857
 20
38.39485579908826
 42
0.2862470652524775
  0
LWPOLYLINE
  5
10649
330
1F
100
AcDbEntity
  8
0
100
AcDbPolyline
 90
        2
 70
     1
 43
0.0
 10
90.68360695938805
 20
46.26788931656839
 42
0.2896391713428238
 10
83.97982966898124
 20
55.46385884153794
 42
0.2896391713428166
  0
LWPOLYLINE
  5
1064A
330
1F
100
AcDbEntity
  8
0
100
AcDbPolyline
 90
       21
 70
     1
 43
0.0
 10
79.89797212450553
 20
31.98292206016032
 42
0.0325840858027288
 10
79.52038975961207
 20
28.79429394627967
 42
0.5280275880554008
 10
81.6858764837438
 20
27.12574834199711
 42
0.182979128218678
 10
83.03659650576564
 20
20.10107536557054
 42
0.5830528618173866
 10
85.94894394442885
 20
20.23346079548071
 42
0.1395846355921854
 10
86.85901806035207
 20
25.12172877923634
 42
0.652337175081305
 10
89.9439578243834
 20
26.04899086569635
 42
0.1172773348180819
 10
89.499927270175
 20
29.70752001045211
 42
0.4857000248632198
 10
91.61799109471475
 20
31.61509934440292
 42
0.0791736963516904
 10
90.39240875177634
 20
36.89845926810074
 42
0.6177571965525491
 10
92.87774650445525
 20
38.68996854572129
 42
0.0994702575277779
 10
90.58437354573657
 20
44.61141891706673
 42
0.1066090294329783
 10
91.37211572946895
 20
44.72643224667389
 42
0.3270285328292909
 10
92.34542329144215
 20
46.20790773103158
 42
0.2778732251975836
 10
85.19218289239146
 20
56.82401232826499
 42
2.34238919816461
 10
83.02001123176323
 20
56.7304664679867
 42
0.216027392696764
 10
82.35310895307524
 20
55.5631652228532
 42
0.0848894766427497
 10
82.57929406342674
 20
53.20231294737884
 42
0.2805809573533606
 10
75.81474125252956
 20
40.89934677798829
 42
0.4687168028230641
 10
77.88745052840088
 20
39.28687284973682
 42
0.113635019965551
 10
77.56888763169833
 20
33.14649909675812
 42
0.5071028065755624
  0
LWPOLYLINE
  5
106EB
330
1F
100
AcDbEntity
  8
0
100
AcDbPolyline
 90
        2
 70
     1
 43
0.0
 10
83.15394272659167
 20
44.10782095355473
 42
0.2789001813249201
 10
79.1280067482144
 20
33.39249225655131
 42
0.2789076509736415
  0
SPLINE
  5
1073E
330
1F
100
AcDbEntity
  8
0
100
AcDbSpline
210
0.0
220
0.0
230
1.0
 70
    13
 71
     2
 72
    32
 73
    29
 74
     0
 42
0.000000001
 43
0.0000000001
 40
0.0
 40
0.0
 40
0.0
 40
1.265498325381077
 40
1.265498325381077
 40
2.530996650762151
 40
2.530996650762151
 40
4.019102824217632
 40
4.019102824217632
 40
5.507208997673114
 40
5.507208997673114
 40
6.995315171128595
 40
6.995315171128595
 40
8.260833647961096
 40
8.260833647961096
 40
9.526352124793595
 40
9.526352124793595
 40
10.92975273281687
 40
10.92975273281687
 40
12.33315334084015
 40
12.33315334084015
 40
13.73655394886343
 40
13.73655394886343
 40
14.30660269654202
 40
14.30660269654202
 40
15.70971982548079
 40
15.70971982548079
 40
17.11283695441955
 40
17.11283695441955
 40
18.51595408335832
 40
18.51595408335832
 40
18.51595408335832
 10
58.80363856361096
 20
84.18076426606996
 30
0.0
 41
1.0
 10
64.85540355396347
 20
87.39959643982444
 30
0.0
 41
0.8064048020726762
 10
63.61698930789505
 20
94.16270700194587
 30
0.0
 41
1.0
 10
62.37857506182662
 20
100.9258175640673
 30
0.0
 41
0.8064048020726762
 10
55.58233137925562
 20
101.7726618976738
 30
0.0
 41
1.0
 10
56.40596754095345
 20
102.8307922207912
 30
0.0
 41
0.7357295532346137
 10
55.41948173751952
 20
103.7390113943282
 30
0.0
 41
1.0
 10
54.43299593408547
 20
104.6472305678651
 30
0.0
 41
0.7357295532346137
 10
53.44640030621135
 20
103.7391306974674
 30
0.0
 41
1.0
 10
52.45980467833716
 20
102.8310308270696
 30
0.0
 41
0.7357295532346137
 10
53.28331287348665
 20
101.7728009087255
 30
0.0
 41
1.0
 10
46.48682406848805
 20
100.9267605810073
 30
0.0
 41
0.8063988436110102
 10
45.24770818118703
 20
94.16363186432391
 30
0.0
 41
1.0
 10
44.00859229388608
 20
87.40050314764056
 30
0.0
 41
0.8063988436110102
 10
50.06022824242298
 20
84.1811160243297
 30
0.0
 41
1.0
 10
49.32258386941249
 20
83.62162327929013
 30
0.0
 41
0.763745716302284
 10
49.75135339200075
 20
82.80106977750898
 30
0.0
 41
1.0
 10
50.18012291458889
 20
81.98051627572784
 30
0.0
 41
0.763745716302284
 10
51.06064618848963
 20
82.26657591444853
 30
0.0
 41
1.0
 10
51.94116946239031
 20
82.55263555316906
 30
0.0
 41
0.763745716302284
 10
51.80581677788286
 20
83.46851273029631
 30
0.0
 41
1.0
 10
54.43162564084771
 20
82.69580018159388
 30
0.0
 41
0.9596547994858068
 10
57.05753545143593
 20
83.46816678772899
 30
0.0
 41
1.0
 10
56.92251398216388
 20
82.55250974092342
 30
0.0
 41
0.763837203945343
 10
57.80279436383928
 20
82.26656381217821
 30
0.0
 41
1.0
 10
58.68307474551467
 20
81.98061788343308
 30
0.0
 41
0.763837203945343
 10
59.1119242080742
 20
82.8008292970277
 30
0.0
 41
1.0
 10
59.54077367063373
 20
83.62104071062219
 30
0.0
 41
0.763837203945343
 10
58.80363856361096
 20
84.18076426606996
 30
0.0
 41
1.0
  0
CIRCLE
  5
1073F
330
1F
100
AcDbEntity
  8
0
100
AcDbCircle
 10
24.06441598495426
 20
60.02011441533364
 30
0.0
 40
0.5959621927430657
  0
LWPOLYLINE
  5
1074D
330
1F
100
AcDbEntity
  8
0
100
AcDbPolyline
 90
       11
 70
     1
 43
0.0
 10
23.08384898510486
 20
58.23528205754539
 42
0.4245421207256831
 10
23.07122239370522
 20
58.95459026895887
 42
-2.539440075568025
 10
25.05760957620331
 20
58.95459026895885
 42
0.424542120725686
 10
25.04498298480366
 20
58.23528205754538
 10
28.4535767433849
 20
54.82679295533819
 10
26.50339276671329
 20
52.87660872910475
 10
34.50223360190965
 20
29.76603073198209
 10
24.06441598495426
 20
19.2158189503788
 10
13.62659811843703
 20
29.76603073198209
 10
21.62543920319523
 20
52.87660872910475
 10
19.67525522652362
 20
54.82679295533819
  0
SPLINE
  5
107A2
330
1F
100
AcDbEntity
  8
0
100
AcDbSpline
210
0.0
220
0.0
230
1.0
 70
    13
 71
     3
 72
    33
 73
    29
 74
     0
 42
0.000000001
 43
0.0000000001
 40
0.0
 40
0.0
 40
0.0
 40
0.0
 40
21.5731874110178
 40
66.82381340025964
 40
105.4209132262066
 40
105.4209132262066
 40
105.4209132262066
 40
106.6747131876444
 40
106.6747131876444
 40
106.6747131876444
 40
107.9285131490822
 40
107.9285131490822
 40
107.9285131490822
 40
109.18231311052
 40
109.18231311052
 40
109.18231311052
 40
110.4361130719577
 40
110.4361130719577
 40
110.4361130719577
 40
149.0032066448489
 40
194.2538326340907
 40
215.8270200451085
 40
215.8270200451085
 40
215.8270200451085
 40
216.8270200451086
 40
216.8270200451086
 40
216.8270200451086
 40
217.8270200451085
 40
217.8270200451085
 40
217.8270200451085
 40
217.8270200451085
 10
40.95858789820614
 20
32.5271309475355
 30
0.0
 41
1.0
 10
41.77048982085585
 20
34.12758629256166
 30
0.0
 41
1.0
 10
44.28538859519031
 20
39.08506092502405
 30
0.0
 41
1.0
 10
48.25288040551978
 20
46.90594801507361
 30
0.0
 41
1.0
 10
51.4084703165031
 20
53.12637974827524
 30
0.0
 41
1.0
 10
52.86106330745553
 20
55.98979222871226
 30
0.0
 41
1.0
 10
52.16185345938107
 20
56.50701833840543
 30
0.0
 41
0.8732333219190103
 10
51.89902236483486
 20
57.33607628326357
 30
0.0
 41
0.8732333219190103
 10
52.17252469807301
 20
58.1616752984677
 30
0.0
 41
0.9999999999999998
 10
52.44602703131116
 20
58.98727431367186
 30
0.0
 41
0.8732333219190103
 10
53.15184984563768
 20
59.49543906546891
 30
0.0
 41
0.8732333219190103
 10
54.02156870059473
 20
59.49291448134938
 30
0.0
 41
1.0
 10
54.89128755555178
 20
59.49038989722986
 30
0.0
 41
0.8732333219190103
 10
55.59414834081743
 20
58.97813607662086
 30
0.0
 41
0.8732333219190103
 10
55.8628530756871
 20
58.15096316504106
 30
0.0
 41
1.0
 10
56.13155781055679
 20
57.32379025346126
 30
0.0
 41
0.8732333219190103
 10
55.86391807515833
 20
56.49627213750935
 30
0.0
 41
0.8732333219190103
 10
55.16171727002853
 20
55.98311398501849
 30
0.0
 41
1.0
 10
56.61318098253516
 20
53.12192758581314
 30
0.0
 41
1.0
 10
59.76764161505776
 20
46.90372193383448
 30
0.0
 41
1.0
 10
63.73400414695833
 20
39.08506092502407
 30
0.0
 41
1.0
 10
66.24890292129281
 20
34.12758629256167
 30
0.0
 41
1.0
 10
67.06080484394252
 20
32.52713094753548
 30
0.0
 41
1.0
 10
62.71043531139281
 20
28.09002694848326
 30
0.0
 41
1.0
 10
58.36006577884312
 20
23.65292294943103
 30
0.0
 41
1.0
 10
54.00969624629341
 20
19.2158189503788
 30
0.0
 41
1.0
 10
49.659326796931
 20
23.65292294943103
 30
0.0
 41
1.0
 10
45.30895734756856
 20
28.09002694848327
 30
0.0
 41
1.0
 10
40.95858789820614
 20
32.5271309475355
 30
0.0
 41
1.0
  0
CIRCLE
  5
107A5
330
1F
100
AcDbEntity
  8
0
100
AcDbCircle
 10
54.01593177981516
 20
57.55099610835319
 30
0.0
 40
0.9214416507298851
  0
SPLINE
  5
1087A
330
1F
100
AcDbEntity
  8
0
100
AcDbSpline
210
0.0
220
0.0
230
1.0
 70
    13
 71
     3
 72
   107
 73
   103
 74
     0
 42
0.000000001
 43
0.0000000001
 40
0.0
 40
0.0
 40
0.0
 40
0.0
 40
1.0
 40
1.0
 40
1.0
 40
2.0
 40
2.0
 40
2.0
 40
3.0
 40
3.0
 40
3.0
 40
4.0
 40
4.0
 40
4.0
 40
5.0
 40
5.0
 40
5.0
 40
6.0
 40
6.0
 40
6.0
 40
7.0
 40
7.0
 40
7.0
 40
8.0
 40
8.0
 40
8.0
 40
9.0
 40
9.0
 40
9.0
 40
10.0
 40
10.0
 40
10.0
 40
11.0
 40
11.0
 40
11.0
 40
12.0
 40
12.0
 40
12.0
 40
13.0
 40
13.0
 40
13.0
 40
14.0
 40
14.0
 40
14.0
 40
15.0
 40
15.0
 40
15.0
 40
16.0
 40
16.0
 40
16.0
 40
17.0
 40
17.0
 40
17.0
 40
18.0
 40
18.0
 40
18.0
 40
19.0
 40
19.0
 40
19.0
 40
20.0
 40
20.0
 40
20.0
 40
21.0
 40
21.0
 40
21.0
 40
22.0
 40
22.0
 40
22.0
 40
33.21132862967566
 40
56.86765458408221
 40
76.7955059959761
 40
76.7955059959761
 40
76.7955059959761
 40
79.08795562852216
 40
81.3589192646001
 40
83.73066556999825
 40
86.10241302036834
 40
88.37337681822267
 40
90.74512374477894
 40
93.11687067133517
 40
95.3878336490105
 40
97.75958109938059
 40
100.1313274047787
 40
102.4022910408566
 40
104.6950888402119
 40
104.6950888402119
 40
104.6950888402119
 40
124.6225016985136
 40
148.2788276529202
 40
159.4901562825959
 40
159.4901562825959
 40
159.4901562825959
 40
160.4901562825959
 40
160.4901562825959
 40
160.4901562825959
 40
161.4901562825959
 40
161.4901562825959
 40
161.4901562825959
 40
162.4901562825959
 40
162.4901562825959
 40
162.4901562825959
 40
163.4901562825959
 40
163.4901562825959
 40
163.4901562825959
 40
163.4901562825959
 10
35.63258224933661
 20
86.09661565956162
 30
0.0
 41
1.0
 10
35.16706990306246
 20
85.63105864171934
 30
0.0
 41
1.0
 10
34.70155755678832
 20
85.165501623877
 30
0.0
 41
1.0
 10
34.23604521051416
 20
84.69994460603468
 30
0.0
 41
1.0
 10
34.70155755678832
 20
84.23443225976052
 30
0.0
 41
1.0
 10
35.16706990306246
 20
83.76891991348641
 30
0.0
 41
1.0
 10
35.63258224933661
 20
83.30340756721222
 30
0.0
 41
1.0
 10
35.16706990306246
 20
82.8378505493699
 30
0.0
 41
1.0
 10
34.70155755678832
 20
82.37229353152759
 30
0.0
 41
1.0
 10
34.23604521051416
 20
81.90673651368525
 30
0.0
 41
1.0
 10
34.70155755678832
 20
81.44122416741112
 30
0.0
 41
1.0
 10
35.16706990306246
 20
80.97571182113696
 30
0.0
 41
1.0
 10
35.63258224933661
 20
80.51019947486281
 30
0.0
 41
1.0
 10
35.16706990306246
 20
80.04464245702051
 30
0.0
 41
1.0
 10
34.70155755678832
 20
79.57908543917818
 30
0.0
 41
1.0
 10
34.23604521051416
 20
79.11352842133585
 30
0.0
 41
1.0
 10
34.70155755678832
 20
78.64797140349352
 30
0.0
 41
1.0
 10
35.16706990306246
 20
78.18241438565121
 30
0.0
 41
1.0
 10
35.63258224933661
 20
77.71685736780887
 30
0.0
 41
1.0
 10
35.16706990306246
 20
77.25134502153474
 30
0.0
 41
1.0
 10
34.70155755678832
 20
76.78583267526062
 30
0.0
 41
1.0
 10
34.23604521051416
 20
76.32032032898644
 30
0.0
 41
1.0
 10
34.70155755678832
 20
75.85476331114415
 30
0.0
 41
1.0
 10
35.16706990306246
 20
75.38920629330181
 30
0.0
 41
1.0
 10
35.63258224933661
 20
74.92364927545949
 30
0.0
 41
1.0
 10
32.02674700536308
 20
71.31781394829869
 30
0.0
 41
1.0
 10
28.42091176138955
 20
67.71197862113787
 30
0.0
 41
1.0
 10
24.81507651741602
 20
64.10614329397706
 30
0.0
 41
1.0
 10
21.20924119025521
 20
67.71197862113787
 30
0.0
 41
1.0
 10
17.6034058630944
 20
71.31781394829869
 30
0.0
 41
1.0
 10
13.9975705359336
 20
74.92364927545949
 30
0.0
 41
1.0
 10
14.46312755377591
 20
75.38920629330181
 30
0.0
 41
1.0
 10
14.92868457161823
 20
75.85476331114415
 30
0.0
 41
1.0
 10
15.39424158946055
 20
76.32032032898644
 30
0.0
 41
1.0
 10
14.92868457161823
 20
76.78583267526062
 30
0.0
 41
1.0
 10
14.46312755377591
 20
77.25134502153474
 30
0.0
 41
1.0
 10
13.99757053593359
 20
77.7168573678089
 30
0.0
 41
1.0
 10
14.46312755377591
 20
78.18241438565121
 30
0.0
 41
1.0
 10
14.92868457161823
 20
78.64797140349352
 30
0.0
 41
1.0
 10
15.39424158946055
 20
79.11352842133585
 30
0.0
 41
1.0
 10
14.92868457161823
 20
79.57908543917818
 30
0.0
 41
1.0
 10
14.46312755377591
 20
80.04464245702051
 30
0.0
 41
1.0
 10
13.99757053593359
 20
80.51019947486281
 30
0.0
 41
1.0
 10
14.46312755377591
 20
80.97571182113696
 30
0.0
 41
1.0
 10
14.92868457161823
 20
81.44122416741112
 30
0.0
 41
1.0
 10
15.39424158946055
 20
81.90673651368525
 30
0.0
 41
1.0
 10
14.92868457161823
 20
82.37229353152759
 30
0.0
 41
1.0
 10
14.46312755377591
 20
82.8378505493699
 30
0.0
 41
1.0
 10
13.99757053593359
 20
83.30340756721222
 30
0.0
 41
1.0
 10
14.46312755377591
 20
83.76891991348641
 30
0.0
 41
1.0
 10
14.92868457161823
 20
84.23443225976052
 30
0.0
 41
1.0
 10
15.39424158946055
 20
84.69994460603468
 30
0.0
 41
1.0
 10
14.92868457161823
 20
85.165501623877
 30
0.0
 41
1.0
 10
14.46312755377591
 20
85.63105864171934
 30
0.0
 41
1.0
 10
13.99757053593359
 20
86.09661565956164
 30
0.0
 41
1.0
 10
14.46312755377591
 20
86.56217259421669
 30
0.0
 41
1.0
 10
14.92868457161823
 20
87.02772952887171
 30
0.0
 41
1.0
 10
15.39424158946055
 20
87.49328646352678
 30
0.0
 41
1.0
 10
14.92868457161823
 20
87.95879880980089
 30
0.0
 41
1.0
 10
14.46312755377591
 20
88.42431115607508
 30
0.0
 41
1.0
 10
13.99757053593359
 20
88.8898235023492
 30
0.0
 41
1.0
 10
14.46312755377591
 20
89.35538052019154
 30
0.0
 41
1.0
 10
14.92868457161823
 20
89.82093753803386
 30
0.0
 41
1.0
 10
15.39424158946055
 20
90.28649455587617
 30
0.0
 41
1.0
 10
14.92868457161823
 20
90.75200690215032
 30
0.0
 41
1.0
 10
14.46312755377591
 20
91.21751924842447
 30
0.0
 41
1.0
 10
13.99757053593359
 20
91.68303159469861
 30
0.0
 41
1.0
 10
14.65704241563311
 20
92.34251172325398
 30
0.0
 41
1.0
 10
16.70802481645347
 20
94.39351977832689
 30
0.0
 41
1.0
 10
19.93120200941741
 20
97.61673668048167
 30
0.0
 41
1.0
 10
22.49490717286647
 20
100.1804736038946
 30
0.0
 41
1.0
 10
23.66710173067834
 20
101.3526826853053
 30
0.0
 41
1.0
 10
23.50601577634521
 20
101.522538443017
 30
0.0
 41
1.0
 10
23.18876617304884
 20
101.8627640614261
 30
0.0
 41
1.0
 10
23.01540790145432
 20
102.5703796210334
 30
0.0
 41
1.0
 10
23.13493402821428
 20
103.2813784036775
 30
0.0
 41
1.0
 10
23.50553767238984
 20
103.9050501086372
 30
0.0
 41
1.0
 10
24.10283437891761
 20
104.3215948364837
 30
0.0
 41
1.0
 10
24.81515192427034
 20
104.4536873006966
 30
0.0
 41
1.0
 10
25.52746945583679
 20
104.3215949117289
 30
0.0
 41
1.0
 10
26.12476591024242
 20
103.9050499914618
 30
0.0
 41
1.0
 10
26.49536955026178
 20
103.2813784157636
 30
0.0
 41
1.0
 10
26.61489566648504
 20
102.5703796179676
 30
0.0
 41
1.0
 10
26.44152869441271
 20
101.8627285376492
 30
0.0
 41
1.0
 10
26.12423938345839
 20
101.5224865288264
 30
0.0
 41
1.0
 10
25.96312844428984
 20
101.3526052946485
 30
0.0
 41
1.0
 10
27.13529720553576
 20
100.1804220101234
 30
0.0
 41
1.0
 10
29.6989765724197
 20
97.61671088359699
 30
0.0
 41
1.0
 10
32.92212796881671
 20
94.39351977832686
 30
0.0
 41
1.0
 10
34.97311036963709
 20
92.34251172325395
 30
0.0
 41
1.0
 10
35.63258224933661
 20
91.68303159469861
 30
0.0
 41
1.0
 10
35.16706990306246
 20
91.21751924842447
 30
0.0
 41
1.0
 10
34.70155755678832
 20
90.75200690215032
 30
0.0
 41
1.0
 10
34.23604521051416
 20
90.28649455587617
 30
0.0
 41
1.0
 10
34.70155755678832
 20
89.82093753803386
 30
0.0
 41
1.0
 10
35.16706990306246
 20
89.35538052019154
 30
0.0
 41
1.0
 10
35.63258224933661
 20
88.8898235023492
 30
0.0
 41
1.0
 10
35.16706990306246
 20
88.42431115607508
 30
0.0
 41
1.0
 10
34.70155755678832
 20
87.95879880980089
 30
0.0
 41
1.0
 10
34.23604521051416
 20
87.49328646352678
 30
0.0
 41
1.0
 10
34.70155755678832
 20
87.02772952887171
 30
0.0
 41
1.0
 10
35.16706990306246
 20
86.56217259421669
 30
0.0
 41
1.0
 10
35.63258224933661
 20
86.09661565956162
 30
0.0
 41
1.0
  0
SPLINE
  5
109B0
330
1F
100
AcDbEntity
  8
0
100
AcDbSpline
210
0.0
220
0.0
230
1.0
 70
    13
 71
     3
 72
   105
 73
   101
 74
     0
 42
0.000000001
 43
0.0000000001
 40
0.0
 40
0.0
 40
0.0
 40
0.0
 40
1.21954546239905
 40
1.21954546239905
 40
1.21954546239905
 40
2.439090924798101
 40
2.439090924798101
 40
2.439090924798101
 40
3.658636387197152
 40
3.658636387197152
 40
3.658636387197152
 40
4.878181849596202
 40
4.878181849596202
 40
4.878181849596202
 40
5.314863537480398
 40
7.727572500885798
 40
11.68549694907965
 40
17.4712740940286
 40
21.13754784746967
 40
23.38038725440181
 40
29.10529207330976
 40
36.0229250023246
 40
40.54654050556851
 40
43.1153957353977
 40
44.48411673242367
 40
44.48411673242367
 40
44.48411673242367
 40
44.52578339909034
 40
44.52578339909034
 40
44.52578339909034
 40
44.56745006575701
 40
44.56745006575701
 40
44.56745006575701
 40
44.60911673242368
 40
44.60911673242368
 40
44.60911673242368
 40
46.43773600485467
 40
51.80632054622374
 40
58.20234730732298
 40
61.87051102344019
 40
65.08217893579189
 40
67.80894513901859
 40
69.27271821902944
 40
70.8518947262047
 40
71.80613141850769
 40
72.90984782017639
 40
74.39453443734871
 40
75.30696998725
 40
76.03342836219812
 40
76.77121215213166
 40
78.13204594256351
 40
79.222949680234
 40
79.79424005842031
 40
79.79424005842031
 40
79.79424005842031
 40
79.835906725087
 40
79.835906725087
 40
79.835906725087
 40
79.87757339175366
 40
79.87757339175366
 40
79.87757339175366
 40
79.91924005842031
 40
79.91924005842031
 40
79.91924005842031
 40
79.96090672508699
 40
79.96090672508699
 40
79.96090672508699
 40
80.00257339175366
 40
80.00257339175366
 40
80.00257339175366
 40
80.04424005842031
 40
80.04424005842031
 40
80.04424005842031
 40
80.08590672508697
 40
80.08590672508697
 40
80.08590672508697
 40
80.12757339175363
 40
80.12757339175363
 40
80.12757339175363
 40
80.16924005842032
 40
80.16924005842032
 40
80.16924005842032
 40
80.21090672508696
 40
80.21090672508696
 40
80.21090672508696
 40
80.25257339175363
 40
80.25257339175363
 40
80.25257339175363
 40
80.29424005842029
 40
80.29424005842029
 40
80.29424005842029
 40
81.05444692964118
 40
82.23292834989548
 40
83.47645321132965
 40
84.46365566911376
 40
85.81446048337104
 40
87.25511208861785
 40
89.40850535417682
 40
90.75534793386555
 40
90.97984383927375
 40
90.97984383927375
 40
90.97984383927375
 40
90.97984383927375
 10
85.12078713325498
 20
104.0926522884634
 30
0.0
 41
1.0
 10
85.48856747943633
 20
104.4178259944253
 30
0.0
 41
0.8798521277179885
 10
85.60384492980601
 20
104.8950171841202
 30
0.0
 41
0.8798521277179885
 10
85.42506846321201
 20
105.3522253392076
 30
0.0
 41
1.0
 10
85.246291996618
 20
105.809433494295
 30
0.0
 41
0.8798521277179885
 10
84.83790044928639
 20
106.0818608537035
 30
0.0
 41
0.8798521277179885
 10
84.34709594762674
 20
106.0713127146803
 30
0.0
 41
1.0
 10
83.85629144596705
 20
106.060764575657
 30
0.0
 41
0.8798521277179885
 10
83.45998133972187
 20
105.7710429475825
 30
0.0
 41
0.8798521277179885
 10
83.30101307697884
 20
105.3065761419583
 30
0.0
 41
1.0
 10
83.1420448142358
 20
104.8421093363341
 30
0.0
 41
0.8798521277179885
 10
83.2777174905817
 20
104.3703114484845
 30
0.0
 41
0.8798521277179885
 10
83.65912875584728
 20
104.0612390155263
 30
0.0
 41
1.0
 10
83.52291011500231
 20
104.0374972120335
 30
0.0
 41
1.0
 10
82.64082873624831
 20
103.8445717464536
 30
0.0
 41
1.0
 10
80.68974318031779
 20
102.7956797857229
 30
0.0
 41
1.0
 10
78.57367261375269
 20
99.44427525615125
 30
0.0
 41
1.0
 10
77.39343852583697
 20
95.33221085772575
 30
0.0
 41
1.0
 10
77.25971661013563
 20
91.64466807127505
 30
0.0
 41
1.0
 10
77.30089808453991
 20
88.13779108928219
 30
0.0
 41
1.0
 10
77.97332725097646
 20
83.1934218395266
 30
0.0
 41
1.0
 10
79.65253698636651
 20
78.25931790200272
 30
0.0
 41
1.0
 10
81.95281336826599
 20
74.08209827258992
 30
0.0
 41
1.0
 10
83.60129468103913
 20
71.99542172417238
 30
0.0
 41
1.0
 10
84.39115750765315
 20
71.07896965804735
 30
0.0
 41
1.0
 10
84.7042805941477
 20
70.7778976936953
 30
0.0
 41
1.0
 10
83.37256568998922
 20
75.91579181951505
 30
0.0
 41
1.0
 10
83.60359459517828
 20
78.644635834978
 30
0.0
 41
1.0
 10
85.41416068807762
 20
78.79577624024185
 30
0.0
 41
1.0
 10
86.79169752462556
 20
78.91085086626026
 30
0.0
 41
1.0
 10
87.35851402859934
 20
77.57545741255572
 30
0.0
 41
1.0
 10
87.1681091053542
 20
74.95401105014536
 30
0.0
 41
1.0
 10
86.90181410560354
 20
71.28721686889403
 30
0.0
 41
1.0
 10
85.76770128684563
 20
67.68039903893797
 30
0.0
 41
1.0
 10
83.70195581130237
 20
64.13811576297553
 30
0.0
 41
1.0
 10
84.13441642809221
 20
64.51616137819986
 30
0.0
 41
1.0
 10
85.83652426836463
 20
66.0040989629689
 30
0.0
 41
1.0
 10
88.949055408413
 20
69.39147703062896
 30
0.0
 41
1.0
 10
90.47359823096959
 20
73.89078723988837
 30
0.0
 41
1.0
 10
90.99721818257675
 20
78.170820527503
 30
0.0
 41
1.0
 10
90.64214546660323
 20
81.31800272328016
 30
0.0
 41
1.0
 10
89.18193686032081
 20
83.19650959063364
 30
0.0
 41
1.0
 10
87.98107817888427
 20
84.55443195610143
 30
0.0
 41
1.0
 10
87.2699398362681
 20
85.57861583154926
 30
0.0
 41
1.0
 10
86.70905060778876
 20
86.62154562453006
 30
0.0
 41
1.0
 10
86.97638811746328
 20
87.79627468929172
 30
0.0
 41
1.0
 10
87.68042601176922
 20
88.62219551368141
 30
0.0
 41
1.0
 10
88.39669697285856
 20
89.38105386863524
 30
0.0
 41
1.0
 10
89.21618674608113
 20
89.3460746045187
 30
0.0
 41
1.0
 10
89.96135262956286
 20
88.85142441928037
 30
0.0
 41
1.0
 10
90.90151128942116
 20
88.49061206888592
 30
0.0
 41
1.0
 10
91.79675306460444
 20
88.16916734382514
 30
0.0
 41
1.0
 10
92.30685387861134
 20
88.0541517184308
 30
0.0
 41
1.0
 10
92.48217376704509
 20
88.0146212451233
 30
0.0
 41
1.0
 10
91.76629603798565
 20
88.72314187509056
 30
0.0
 41
1.0
 10
90.39155809783144
 20
89.30723156823743
 30
0.0
 41
1.0
 10
89.85129112536441
 20
90.41583444557762
 30
0.0
 41
1.0
 10
91.3659738852073
 20
90.33594594565256
 30
0.0
 41
1.0
 10
92.35430418608371
 20
90.39856125640467
 30
0.0
 41
1.0
 10
92.81628202799346
 20
90.60384031477097
 30
0.0
 41
1.0
 10
92.19476709163858
 20
90.95554163876608
 30
0.0
 41
1.0
 10
91.28640525915569
 20
91.03167162067668
 30
0.0
 41
1.0
 10
90.0600088278716
 20
91.37641568792156
 30
0.0
 41
1.0
 10
91.32886851587267
 20
91.66126337233952
 30
0.0
 41
1.0
 10
92.27537530777928
 20
92.00224892156972
 30
0.0
 41
1.0
 10
92.89976910899641
 20
92.39953227254913
 30
0.0
 41
1.0
 10
92.12535446107281
 20
92.57138451112695
 30
0.0
 41
1.0
 10
91.16501312413426
 20
92.66886607409873
 30
0.0
 41
1.0
 10
90.01834525583849
 20
92.69197696146452
 30
0.0
 41
1.0
 10
89.88943608478811
 20
94.08366821691803
 30
0.0
 41
1.0
 10
89.56164533284267
 20
95.47376010300395
 30
0.0
 41
1.0
 10
88.95356509917792
 20
96.82626680894479
 30
0.0
 41
1.0
 10
88.61249958147915
 20
97.58500763706315
 30
0.0
 41
1.0
 10
88.32093454571618
 20
98.4215577849285
 30
0.0
 41
1.0
 10
88.16011795577663
 20
99.37374233809098
 30
0.0
 41
1.0
 10
87.87127184793897
 20
98.08393091137075
 30
0.0
 41
1.0
 10
87.50213739783426
 20
97.3754102814035
 30
0.0
 41
1.0
 10
87.24136022240278
 20
97.0560961871079
 30
0.0
 41
1.0
 10
86.78617970030639
 20
96.49847605699939
 30
0.0
 41
1.0
 10
86.58034086266134
 20
95.87552168821336
 30
0.0
 41
1.0
 10
86.40608957003165
 20
95.34389131033279
 30
0.0
 41
1.0
 10
86.00240874158082
 20
95.37172033733369
 30
0.0
 41
1.0
 10
85.61959968338063
 20
95.37172033733369
 30
0.0
 41
1.0
 10
85.25774236389974
 20
95.34389131033279
 30
0.0
 41
1.0
 10
85.02023601277072
 20
96.31718753915103
 30
0.0
 41
1.0
 10
84.50236021145386
 20
96.80467532247844
 30
0.0
 41
1.0
 10
84.31819282874343
 20
97.26481388961515
 30
0.0
 41
1.0
 10
84.06325335150464
 20
97.9012029610914
 30
0.0
 41
1.0
 10
84.09668017129316
 20
98.57253825325557
 30
0.0
 41
1.0
 10
84.04318126593784
 20
99.18853536529136
 30
0.0
 41
1.0
 10
84.20369548308329
 20
98.96915826142908
 30
0.0
 41
1.0
 10
84.65055767806212
 20
98.5666499194442
 30
0.0
 41
1.0
 10
85.74912766023281
 20
98.44016111012525
 30
0.0
 41
1.0
 10
86.786641829382
 20
98.75253182308393
 30
0.0
 41
1.0
 10
87.69539151403966
 20
99.52214482408161
 30
0.0
 41
1.0
 10
88.11939877082318
 20
100.6668786011342
 30
0.0
 41
1.0
 10
87.96154507011829
 20
102.4229323182475
 30
0.0
 41
1.0
 10
86.82143927432816
 20
103.6434609429236
 30
0.0
 41
1.0
 10
85.68402548899671
 20
104.0075475364973
 30
0.0
 41
1.0
 10
85.19136666730224
 20
104.083396689994
 30
0.0
 41
1.0
 10
85.1207871332574
 20
104.0926522884606
 30
0.0
 41
1.0
  0
ENDSEC
  0
SECTION
  2
OBJECTS
  0
DICTIONARY
  5
C
330
0
100
AcDbDictionary
281
     1
  3
ACAD_BACKGROUND
350
1020A
  3
ACAD_CIP_PREVIOUS_PRODUCT_INFO
350
10056
  3
ACAD_COLOR
350
10035
  3
ACAD_DETAILVIEWSTYLE
350
1004F
  3
ACAD_GROUP
350
D
  3
ACAD_LAYOUT
350
10036
  3
ACAD_MATERIAL
350
10003
  3
ACAD_MLEADERSTYLE
350
1004B
  3
ACAD_MLINESTYLE
350
17
  3
ACAD_PLOTSETTINGS
350
10051
  3
ACAD_PLOTSTYLENAME
350
10001
  3
ACAD_SCALELIST
350
10039
  3
ACAD_SECTIONVIEWSTYLE
350
1004D
  3
ACAD_TABLESTYLE
350
10037
  3
ACAD_VISUALSTYLE
350
1001C
  3
ACDB_RECOMPOSE_DATA
350
10A4D
  3
AcDbVariableDictionary
350
1009F
  3
DWGPROPS
350
10A4E
  0
DICTIONARY
  5
100F1
330
2
100
AcDbDictionary
280
     1
281
     1
  3
ACAD_LAYERSTATES
360
100F2
  0
DICTIONARY
  5
1009B
330
50
100
AcDbDictionary
280
     1
281
     1
  3
ADSK_XREC_LAYER_RECONCILED
360
1009C
  0
DICTIONARY
  5
1009D
330
51
100
AcDbDictionary
280
     1
281
     1
  3
ADSK_XREC_LAYER_RECONCILED
360
1009E
  0
DICTIONARY
  5
1024F
330
1F
100
AcDbDictionary
280
     1
281
     1
  3
ACAD_SORTENTS
360
10250
  0
DICTIONARY
  5
10A8C
330
10268
100
AcDbDictionary
280
     1
281
     1
  3
AcDbBlockTableRecordData
360
10A8D
  0
DICTIONARY
  5
10A8F
330
1028C
100
AcDbDictionary
280
     1
281
     1
  3
AcDbBlockTableRecordData
360
10A90
  0
DICTIONARY
  5
10A92
330
10336
100
AcDbDictionary
280
     1
281
     1
  3
AcDbBlockTableRecordData
360
10A93
  0
DICTIONARY
  5
10A95
330
1039E
100
AcDbDictionary
280
     1
281
     1
  3
AcDbBlockTableRecordData
360
10A96
  0
DICTIONARY
  5
1020A
102
{ACAD_REACTORS
330
C
102
}
330
C
100
AcDbDictionary
281
     1
  0
XRECORD
  5
10056
102
{ACAD_REACTORS
330
C
102
}
330
C
100
AcDbXrecord
280
     1
300
ACD
300
2022
300

  0
DICTIONARY
  5
10035
102
{ACAD_REACTORS
330
C
102
}
330
C
100
AcDbDictionary
281
     1
  0
DICTIONARY
  5
1004F
102
{ACAD_REACTORS
330
C
102
}
330
C
100
AcDbDictionary
281
     1
  3
Metric50
350
10050
  0
DICTIONARY
  5
D
330
C
100
AcDbDictionary
281
     1
  0
DICTIONARY
  5
10036
102
{ACAD_REACTORS
330
C
102
}
330
C
100
AcDbDictionary
281
     1
  3
Layout1
350
10053
  3
Model
350
10052
  0
DICTIONARY
  5
10003
102
{ACAD_REACTORS
330
C
102
}
330
C
100
AcDbDictionary
281
     1
  3
ByBlock
350
1000C
  3
ByLayer
350
10004
  3
Global
350
10014
  0
DICTIONARY
  5
1004B
102
{ACAD_REACTORS
330
C
102
}
330
C
100
AcDbDictionary
281
     1
  3
Standard
350
1004C
  0
DICTIONARY
  5
17
330
C
100
AcDbDictionary
281
     1
  3
Standard
350
100F0
  0
DICTIONARY
  5
10051
102
{ACAD_REACTORS
330
C
102
}
330
C
100
AcDbDictionary
281
     1
  0
ACDBDICTIONARYWDFLT
  5
10001
102
{ACAD_REACTORS
330
C
102
}
330
C
100
AcDbDictionary
281
     1
  3
Normal
350
10002
100
AcDbDictionaryWithDefault
340
10002
  0
DICTIONARY
  5
10039
102
{ACAD_REACTORS
330
C
102
}
330
C
100
AcDbDictionary
281
     1
  3
A0
350
1003A
  3
A1
350
1003B
  3
A2
350
1003C
  3
A3
350
1003D
  3
A4
350
1003E
  3
A5
350
1003F
  3
A6
350
10040
  3
A7
350
10041
  3
A8
350
10042
  3
A9
350
10043
  3
B0
350
10044
  3
B1
350
10045
  3
B2
350
10046
  3
B3
350
10047
  3
B4
350
10048
  3
B5
350
10049
  3
B6
350
1004A
  0
DICTIONARY
  5
1004D
102
{ACAD_REACTORS
330
C
102
}
330
C
100
AcDbDictionary
281
     1
  3
Metric50
350
1004E
  0
DICTIONARY
  5
10037
102
{ACAD_REACTORS
330
C
102
}
330
C
100
AcDbDictionary
281
     1
  3
Standard
350
10038
  0
DICTIONARY
  5
1001C
102
{ACAD_REACTORS
330
C
102
}
330
C
100
AcDbDictionary
281
     1
  3
2dWireframe
350
10022
  3
Basic
350
10021
  3
Brighten
350
10028
  3
ColorChange
350
1002C
  3
Conceptual
350
10025
  3
Dim
350
10027
  3
EdgeColorOff
350
10034
  3
Facepattern
350
1002B
  3
Flat
350
1001D
  3
FlatWithEdges
350
1001E
  3
Gouraud
350
1001F
  3
GouraudWithEdges
350
10020
  3
Hidden
350
10024
  3
JitterOff
350
10032
  3
Linepattern
350
1002A
  3
OverhangOff
350
10033
  3
Realistic
350
10026
  3
Shaded
350
10031
  3
Shaded with edges
350
10030
  3
Shades of Gray
350
1002D
  3
Sketchy
350
1002E
  3
Thicken
350
10029
  3
Wireframe
350
10023
  3
X-Ray
350
1002F
  0
XRECORD
  5
10A4D
102
{ACAD_REACTORS
330
C
102
}
330
C
100
AcDbXrecord
280
     1
 90
        1
330
10038
330
10501
  0
DICTIONARY
  5
1009F
102
{ACAD_REACTORS
330
C
102
}
330
C
100
AcDbDictionary
281
     1
  3
CANNOSCALE
350
100A4
  3
CMLEADERSTYLE
350
100A1
  3
CTABLESTYLE
350
100A0
  3
CVIEWDETAILSTYLE
350
100A2
  3
CVIEWSECTIONSTYLE
350
100A3
  3
DIMASSOC
350
100A7
  3
INDEXCTL
350
100A6
  3
SORTENTS
350
100A5
  3
XCLIPFRAME
350
100A8
  0
XRECORD
  5
10A4E
102
{ACAD_REACTORS
330
C
102
}
330
C
100
AcDbXrecord
280
     1
  1
DWGPROPS COOKIE
  2
Free Laser Cut Earring Templates (DXF Files) for DIY Jewelry
  3

  4
templatesarea.com
  6
https://www.templatesarea.com/license-agreement/
  7

  8
cengi
  9

300
=
301
=
302
=
303
=
304
=
305
=
306
=
307
=
308
=
309
=
 40
731.6715972222222
 41
2459754.991921296
 42
2460486.663518519
  1

 90
        0
  0
DICTIONARY
  5
100F2
102
{ACAD_REACTORS
330
100F1
102
}
330
100F1
100
AcDbDictionary
281
     1
  0
XRECORD
  5
1009C
102
{ACAD_REACTORS
330
1009B
102
}
330
1009B
100
AcDbXrecord
280
     1
290
     1
  0
XRECORD
  5
1009E
102
{ACAD_REACTORS
330
1009D
102
}
330
1009D
100
AcDbXrecord
280
     1
290
     1
  0
SORTENTSTABLE
  5
10250
102
{ACAD_REACTORS
330
1024F
102
}
330
1024F
100
AcDbSortentsTable
330
1F
331
48B
  5
4AA
331
4A9
  5
4AC
331
4AC
  5
101AF
331
4B2
  5
1052A
331
10059
  5
10579
331
1005A
  5
1057B
331
1005B
  5
1057C
331
1005C
  5
1057D
331
1005D
  5
1057E
331
1005E
  5
1057F
331
1005F
  5
10580
331
10060
  5
10581
331
10061
  5
10582
331
10062
  5
10588
331
10063
  5
10589
331
10064
  5
1058A
331
10065
  5
1058B
331
10066
  5
1058C
331
10067
  5
1058D
331
10068
  5
1058E
331
10069
  5
1058F
331
1006A
  5
10590
331
1006B
  5
10591
331
1006C
  5
10592
331
1006E
  5
10593
331
1006F
  5
10594
331
10070
  5
10595
331
10071
  5
10596
331
10072
  5
10597
331
10073
  5
10598
331
10074
  5
10599
331
10075
  5
1059A
331
10076
  5
1059B
331
10077
  5
1059C
331
10078
  5
1059D
331
10079
  5
1059E
331
1007A
  5
1059F
331
1007B
  5
105A0
331
1007C
  5
105A1
331
1007D
  5
105A2
331
1007E
  5
105A3
331
1007F
  5
105A4
331
10080
  5
105A5
331
10081
  5
105A6
331
10082
  5
105A7
331
10083
  5
105A8
331
10084
  5
105A9
331
10085
  5
105AA
331
10086
  5
105AB
331
10087
  5
105AC
331
10088
  5
105AD
331
10089
  5
105AE
331
1008A
  5
105AF
331
1008B
  5
105B0
331
1008C
  5
105B1
331
1008D
  5
105B2
331
1008E
  5
105B3
331
1008F
  5
105B4
331
10090
  5
105B5
331
10091
  5
105B6
331
10092
  5
105B7
331
10093
  5
105B8
331
10094
  5
105B9
331
10095
  5
105BA
331
10096
  5
105BB
331
10097
  5
105BC
331
10098
  5
105BD
331
10099
  5
105BE
331
1009A
  5
105BF
331
1015B
  5
105C0
331
101A9
  5
105C1
331
101AA
  5
105C2
331
101AB
  5
10622
331
101AC
  5
10642
331
101AD
  5
10646
331
101B7
  5
10647
331
101B8
  5
10648
331
101B9
  5
10649
331
101BC
  5
106EB
331
1024E
  5
3FF
331
10396
  5
10739
331
104A1
  5
1073A
331
104A5
  5
1073B
331
104A9
  5
1073C
331
104AE
  5
1073D
331
104B1
  5
1073E
331
104B5
  5
1073F
331
104BA
  5
10742
331
104BC
  5
10743
331
104C0
  5
10744
331
104C2
  5
10745
331
104C7
  5
10746
331
104CA
  5
10747
331
104CC
  5
10748
331
104CF
  5
10749
331
104D1
  5
1074D
331
104D5
  5
1079D
331
104DC
  5
1079E
331
104DF
  5
1079F
331
104E1
  5
107A0
331
104E2
  5
107A1
331
104E3
  5
107A2
331
104E4
  5
107A3
331
104E5
  5
107A5
331
104E6
  5
107F4
331
104E7
  5
107F5
331
104E8
  5
107F6
331
104E9
  5
107F7
331
104EA
  5
107F8
331
104EB
  5
107F9
331
104EC
  5
107FA
331
104ED
  5
107FB
331
104EE
  5
107FC
331
104EF
  5
107FD
331
104F0
  5
107FE
331
104F1
  5
107FF
331
104F2
  5
10800
331
104F3
  5
10801
331
104F4
  5
10802
331
104F5
  5
10803
331
104F6
  5
10804
331
10501
  5
10805
331
10510
  5
10806
331
10511
  5
10807
331
10512
  5
10808
331
10513
  5
10809
331
10514
  5
1080A
331
10515
  5
1080B
331
10516
  5
1080C
331
10517
  5
1080D
331
10518
  5
1080E
331
10519
  5
1080F
331
1051A
  5
10810
331
1051B
  5
1085E
331
1051C
  5
1085F
331
1051D
  5
10860
331
1051E
  5
10861
331
1051F
  5
10862
331
10520
  5
10863
331
10521
  5
10864
331
10522
  5
10865
331
10523
  5
10866
331
10524
  5
10867
331
10525
  5
10868
331
10526
  5
10869
331
10527
  5
1086A
331
10528
  5
1086B
331
10529
  5
1086C
331
1052A
  5
1086D
331
1052B
  5
1086E
331
10622
  5
1086F
331
10642
  5
10870
331
10644
  5
10871
331
10645
  5
10872
331
10646
  5
10873
331
10647
  5
10874
331
10648
  5
10875
331
10649
  5
10876
331
1064A
  5
10877
331
106EB
  5
10878
331
1073E
  5
1064A
331
1073F
  5
10879
331
1074D
  5
1087A
331
107A2
  5
1052B
331
107A5
  5
109AF
331
1087A
  5
101AE
331
109B0
  5
106EA
  0
DICTIONARY
  5
10A8D
102
{ACAD_REACTORS
330
10A8C
102
}
330
10A8C
100
AcDbDictionary
280
     1
281
     1
  3
Edit
360
10A8E
  0
DICTIONARY
  5
10A90
102
{ACAD_REACTORS
330
10A8F
102
}
330
10A8F
100
AcDbDictionary
280
     1
281
     1
  3
Edit
360
10A91
  0
DICTIONARY
  5
10A93
102
{ACAD_REACTORS
330
10A92
102
}
330
10A92
100
AcDbDictionary
280
     1
281
     1
  3
Edit
360
10A94
  0
DICTIONARY
  5
10A96
102
{ACAD_REACTORS
330
10A95
102
}
330
10A95
100
AcDbDictionary
280
     1
281
     1
  3
Edit
360
10A97
  0
ACDBDETAILVIEWSTYLE
  5
10050
102
{ACAD_XDICTIONARY
360
10A86
102
}
102
{ACAD_REACTORS
330
1004F
102
}
330
1004F
100
AcDbModelDocViewStyle
 70
     0
  3
Metric50
290
     0
100
AcDbDetailViewStyle
 70
     0
 71
     0
 90
        3
 71
     1
340
11
 40
5.0
340
0
 40
5.0
300

 40
0.0
280
     1
 71
     2
340
16
 90
       25
 71
     3
340
11
 40
5.0
 90
        0
 40
15.0
 90
        1
300
%<\AcVar ViewDetailId>% (%<\AcVar ViewScale \f "%sn">%)
 71
     4
340
16
 90
       25
340
16
 90
       25
280
     0
  0
LAYOUT
  5
10053
102
{ACAD_XDICTIONARY
360
10A8A
102
}
102
{ACAD_REACTORS
330
10036
102
}
330
10036
100
AcDbPlotSettings
  1

  2
Canon E410 series XPS
  4

  6

 40
0.0
 41
0.0
 42
0.0
 43
0.0
 44
0.0
 45
0.0
 46
0.0
 47
0.0
 48
0.0
 49
0.0
140
0.0
141
0.0
142
1.0
143
1.0
 70
   688
 72
     0
 73
     0
 74
     5
  7

 75
    16
147
1.0
148
0.0
149
0.0
100
AcDbLayout
  1
Layout1
 70
     1
 71
     1
 10
0.0
 20
0.0
 11
12.0
 21
9.0
 12
0.0
 22
0.0
 32
0.0
 14
1.000000000000000E+20
 24
1.000000000000000E+20
 34
1.000000000000000E+20
 15
-1.000000000000000E+20
 25
-1.000000000000000E+20
 35
-1.000000000000000E+20
146
0.0
 13
0.0
 23
0.0
 33
0.0
 16
1.0
 26
0.0
 36
0.0
 17
0.0
 27
1.0
 37
0.0
 76
     0
330
1B
  0
LAYOUT
  5
10052
102
{ACAD_XDICTIONARY
360
10A88
102
}
102
{ACAD_REACTORS
330
10036
102
}
330
10036
100
AcDbPlotSettings
  1

  2
Canon E410 series XPS
  4

  6

 40
0.0
 41
0.0
 42
0.0
 43
0.0
 44
0.0
 45
0.0
 46
0.0
 47
0.0
 48
0.0
 49
0.0
140
0.0
141
0.0
142
1.0
143
1.0
 70
  1712
 72
     0
 73
     0
 74
     0
  7

 75
     0
147
1.0
148
0.0
149
0.0
100
AcDbLayout
  1
Model
 70
     1
 71
     0
 10
0.0
 20
0.0
 11
12.0
 21
9.0
 12
0.0
 22
0.0
 32
0.0
 14
0.0
 24
0.0
 34
0.0
 15
0.0
 25
0.0
 35
0.0
146
0.0
 13
0.0
 23
0.0
 33
0.0
 16
1.0
 26
0.0
 36
0.0
 17
0.0
 27
1.0
 37
0.0
 76
     0
330
1F
331
2E
  0
MATERIAL
  5
1000C
102
{ACAD_XDICTIONARY
360
1000D
102
}
102
{ACAD_REACTORS
330
10003
102
}
330
10003
100
AcDbMaterial
  1
ByBlock
 72
     0
 43
0.0208333333333333
 43
0.0
 43
0.0
 43
0.0
 43
0.0
 43
0.0208333333333333
 43
0.0
 43
0.0
 43
0.0
 43
0.0
 43
1.0
 43
0.0
 43
0.0
 43
0.0
 43
0.0
 43
1.0
 77
     0
 47
0.0208333333333333
 47
0.0
 47
0.0
 47
0.0
 47
0.0
 47
0.0208333333333333
 47
0.0
 47
0.0
 47
0.0
 47
0.0
 47
1.0
 47
0.0
 47
0.0
 47
0.0
 47
0.0
 47
1.0
171
     0
 49
0.0208333333333333
 49
0.0
 49
0.0
 49
0.0
 49
0.0
 49
0.0208333333333333
 49
0.0
 49
0.0
 49
0.0
 49
0.0
 49
1.0
 49
0.0
 49
0.0
 49
0.0
 49
0.0
 49
1.0
175
     0
142
0.0208333333333333
142
0.0
142
0.0
142
0.0
142
0.0
142
0.0208333333333333
142
0.0
142
0.0
142
0.0
142
0.0
142
1.0
142
0.0
142
0.0
142
0.0
142
0.0
142
1.0
179
     0
144
0.0208333333333333
144
0.0
144
0.0
144
0.0
144
0.0
144
0.0208333333333333
144
0.0
144
0.0
144
0.0
144
0.0
144
1.0
144
0.0
144
0.0
144
0.0
144
0.0
144
1.0
147
0.0208333333333333
147
0.0
147
0.0
147
0.0
147
0.0
147
0.0208333333333333
147
0.0
147
0.0
147
0.0
147
0.0
147
1.0
147
0.0
147
0.0
147
0.0
147
0.0
147
1.0
  0
MATERIAL
  5
10004
102
{ACAD_XDICTIONARY
360
10005
102
}
102
{ACAD_REACTORS
330
10003
102
}
330
10003
100
AcDbMaterial
  1
ByLayer
 72
     0
 43
0.0208333333333333
 43
0.0
 43
0.0
 43
0.0
 43
0.0
 43
0.0208333333333333
 43
0.0
 43
0.0
 43
0.0
 43
0.0
 43
1.0
 43
0.0
 43
0.0
 43
0.0
 43
0.0
 43
1.0
 77
     0
 47
0.0208333333333333
 47
0.0
 47
0.0
 47
0.0
 47
0.0
 47
0.0208333333333333
 47
0.0
 47
0.0
 47
0.0
 47
0.0
 47
1.0
 47
0.0
 47
0.0
 47
0.0
 47
0.0
 47
1.0
171
     0
 49
0.0208333333333333
 49
0.0
 49
0.0
 49
0.0
 49
0.0
 49
0.0208333333333333
 49
0.0
 49
0.0
 49
0.0
 49
0.0
 49
1.0
 49
0.0
 49
0.0
 49
0.0
 49
0.0
 49
1.0
175
     0
142
0.0208333333333333
142
0.0
142
0.0
142
0.0
142
0.0
142
0.0208333333333333
142
0.0
142
0.0
142
0.0
142
0.0
142
1.0
142
0.0
142
0.0
142
0.0
142
0.0
142
1.0
179
     0
144
0.0208333333333333
144
0.0
144
0.0
144
0.0
144
0.0
144
0.0208333333333333
144
0.0
144
0.0
144
0.0
144
0.0
144
1.0
144
0.0
144
0.0
144
0.0
144
0.0
144
1.0
147
0.0208333333333333
147
0.0
147
0.0
147
0.0
147
0.0
147
0.0208333333333333
147
0.0
147
0.0
147
0.0
147
0.0
147
1.0
147
0.0
147
0.0
147
0.0
147
0.0
147
1.0
  0
MATERIAL
  5
10014
102
{ACAD_XDICTIONARY
360
10015
102
}
102
{ACAD_REACTORS
330
10003
102
}
330
10003
100
AcDbMaterial
  1
Global
 72
     0
 43
0.0208333333333333
 43
0.0
 43
0.0
 43
0.0
 43
0.0
 43
0.0208333333333333
 43
0.0
 43
0.0
 43
0.0
 43
0.0
 43
1.0
 43
0.0
 43
0.0
 43
0.0
 43
0.0
 43
1.0
 77
     0
 47
0.0208333333333333
 47
0.0
 47
0.0
 47
0.0
 47
0.0
 47
0.0208333333333333
 47
0.0
 47
0.0
 47
0.0
 47
0.0
 47
1.0
 47
0.0
 47
0.0
 47
0.0
 47
0.0
 47
1.0
171
     0
 49
0.0208333333333333
 49
0.0
 49
0.0
 49
0.0
 49
0.0
 49
0.0208333333333333
 49
0.0
 49
0.0
 49
0.0
 49
0.0
 49
1.0
 49
0.0
 49
0.0
 49
0.0
 49
0.0
 49
1.0
175
     0
142
0.0208333333333333
142
0.0
142
0.0
142
0.0
142
0.0
142
0.0208333333333333
142
0.0
142
0.0
142
0.0
142
0.0
142
1.0
142
0.0
142
0.0
142
0.0
142
0.0
142
1.0
179
     0
144
0.0208333333333333
144
0.0
144
0.0
144
0.0
144
0.0
144
0.0208333333333333
144
0.0
144
0.0
144
0.0
144
0.0
144
1.0
144
0.0
144
0.0
144
0.0
144
0.0
144
1.0
147
0.0208333333333333
147
0.0
147
0.0
147
0.0
147
0.0
147
0.0208333333333333
147
0.0
147
0.0
147
0.0
147
0.0
147
1.0
147
0.0
147
0.0
147
0.0
147
0.0
147
1.0
  0
MLEADERSTYLE
  5
1004C
102
{ACAD_REACTORS
330
1004B
102
}
330
1004B
100
AcDbMLeaderStyle
170
     2
171
     1
172
     0
 90
        2
 40
0.0
 41
0.0
173
     1
 91
-1056964608
340
14
 92
       -2
290
     1
 42
2.0
291
     1
 43
0.36
  3
Standard
 44
4.0
300

342
11
174
     1
178
     6
175
     1
176
     0
 93
-1056964608
 45
4.0
292
     0
297
     0
 46
4.0
 94
-1056964608
 47
1.0
 49
1.0
140
1.0
293
     1
141
0.0
294
     1
177
     0
142
1.0
295
     0
296
     0
143
0.125
1001
ACAD_MLEADERVER
1070
     2
  0
MLINESTYLE
  5
100F0
102
{ACAD_REACTORS
330
17
102
}
330
17
100
AcDbMlineStyle
  2
STANDARD
 70
     0
  3

 62
   256
 51
90.0
 52
90.0
 71
     2
 49
0.5
 62
   256
  6
BYLAYER
 49
-0.5
 62
   256
  6
BYLAYER
  0
ACDBPLACEHOLDER
  5
10002
102
{ACAD_REACTORS
330
10001
102
}
330
10001
  0
SCALE
  5
1003A
102
{ACAD_REACTORS
330
10039
102
}
330
10039
100
AcDbScale
 70
     0
300
1:1
140
1.0
141
1.0
290
     1
  0
SCALE
  5
1003B
102
{ACAD_REACTORS
330
10039
102
}
330
10039
100
AcDbScale
 70
     0
300
1:2
140
1.0
141
2.0
290
     0
  0
SCALE
  5
1003C
102
{ACAD_REACTORS
330
10039
102
}
330
10039
100
AcDbScale
 70
     0
300
1:4
140
1.0
141
4.0
290
     0
  0
SCALE
  5
1003D
102
{ACAD_REACTORS
330
10039
102
}
330
10039
100
AcDbScale
 70
     0
300
1:5
140
1.0
141
5.0
290
     0
  0
SCALE
  5
1003E
102
{ACAD_REACTORS
330
10039
102
}
330
10039
100
AcDbScale
 70
     0
300
1:8
140
1.0
141
8.0
290
     0
  0
SCALE
  5
1003F
102
{ACAD_REACTORS
330
10039
102
}
330
10039
100
AcDbScale
 70
     0
300
1:10
140
1.0
141
10.0
290
     0
  0
SCALE
  5
10040
102
{ACAD_REACTORS
330
10039
102
}
330
10039
100
AcDbScale
 70
     0
300
1:16
140
1.0
141
16.0
290
     0
  0
SCALE
  5
10041
102
{ACAD_REACTORS
330
10039
102
}
330
10039
100
AcDbScale
 70
     0
300
1:20
140
1.0
141
20.0
290
     0
  0
SCALE
  5
10042
102
{ACAD_REACTORS
330
10039
102
}
330
10039
100
AcDbScale
 70
     0
300
1:30
140
1.0
141
30.0
290
     0
  0
SCALE
  5
10043
102
{ACAD_REACTORS
330
10039
102
}
330
10039
100
AcDbScale
 70
     0
300
1:40
140
1.0
141
40.0
290
     0
  0
SCALE
  5
10044
102
{ACAD_REACTORS
330
10039
102
}
330
10039
100
AcDbScale
 70
     0
300
1:50
140
1.0
141
50.0
290
     0
  0
SCALE
  5
10045
102
{ACAD_REACTORS
330
10039
102
}
330
10039
100
AcDbScale
 70
     0
300
1:100
140
1.0
141
100.0
290
     0
  0
SCALE
  5
10046
102
{ACAD_REACTORS
330
10039
102
}
330
10039
100
AcDbScale
 70
     0
300
2:1
140
2.0
141
1.0
290
     0
  0
SCALE
  5
10047
102
{ACAD_REACTORS
330
10039
102
}
330
10039
100
AcDbScale
 70
     0
300
4:1
140
4.0
141
1.0
290
     0
  0
SCALE
  5
10048
102
{ACAD_REACTORS
330
10039
102
}
330
10039
100
AcDbScale
 70
     0
300
8:1
140
8.0
141
1.0
290
     0
  0
SCALE
  5
10049
102
{ACAD_REACTORS
330
10039
102
}
330
10039
100
AcDbScale
 70
     0
300
10:1
140
10.0
141
1.0
290
     0
  0
SCALE
  5
1004A
102
{ACAD_REACTORS
330
10039
102
}
330
10039
100
AcDbScale
 70
     0
300
100:1
140
100.0
141
1.0
290
     0
  0
ACDBSECTIONVIEWSTYLE
  5
1004E
102
{ACAD_XDICTIONARY
360
10A84
102
}
102
{ACAD_REACTORS
330
1004D
102
}
330
1004D
100
AcDbModelDocViewStyle
 70
     0
  3
Metric50
290
     0
100
AcDbSectionViewStyle
 70
     0
 71
     0
 90
      102
 71
     1
340
11
 40
5.0
340
0
340
0
 40
5.0
300
I, O, Q, S, X, Z
 40
10.0
 90
        0
 40
2.5
 90
        0
 71
     2
340
16
 90
       25
340
16
 90
       50
 40
5.0
 40
2.5
 40
5.0
 71
     3
340
11
 40
5.0
 90
        0
 40
15.0
 90
        1
300
%<\AcVar ViewSectionStartId>%-%<\AcVar ViewSectionEndId>% (%<\AcVar ViewScale \f "%sn">%)
 71
     4
300
ANSI31
 40
1.0
 90
        0
290
     0
290
     0
 90
        6
 40
0.0
 40
1.570796326794896
 40
0.2617993877991494
 40
1.308996938995747
 40
-0.2617993877991494
 40
1.832595714594046
  0
TABLESTYLE
  5
10038
102
{ACAD_XDICTIONARY
360
10A4B
102
}
102
{ACAD_REACTORS
330
10037
102
}
330
10037
100
AcDbTableStyle
  3
Standard
 70
     0
 71
     0
 40
1.5
 41
1.5
280
     0
281
     0
  7
STANDARD
140
4.5
170
     2
 62
     0
 63
     7
283
     0
274
    -2
284
     1
 64
     0
275
    -2
285
     1
 65
     0
276
    -2
286
     1
 66
     0
277
    -2
287
     1
 67
     0
278
    -2
288
     1
 68
     0
279
    -2
289
     1
 69
     0
  7
STANDARD
140
6.0
170
     5
 62
     0
 63
     7
283
     0
274
    -2
284
     1
 64
     0
275
    -2
285
     1
 65
     0
276
    -2
286
     1
 66
     0
277
    -2
287
     1
 67
     0
278
    -2
288
     1
 68
     0
279
    -2
289
     1
 69
     0
  7
STANDARD
140
4.5
170
     5
 62
     0
 63
     7
283
     0
274
    -2
284
     1
 64
     0
275
    -2
285
     1
 65
     0
276
    -2
286
     1
 66
     0
277
    -2
287
     1
 67
     0
278
    -2
288
     1
 68
     0
279
    -2
289
     1
 69
     0
  0
VISUALSTYLE
  5
10022
102
{ACAD_XDICTIONARY
360
10A5C
102
}
102
{ACAD_REACTORS
330
1001C
102
}
330
1001C
100
AcDbVisualStyle
  2
2dWireframe
 70
     4
 71
     0
 72
     2
 73
     0
 90
        0
 40
-0.6
 41
-30.0
 62
     5
 63
     7
 74
     1
 91
        4
 64
     7
 65
   257
 75
     1
175
     1
 42
1.0
 92
        0
 66
   257
 43
1.0
 76
     1
 77
     6
 78
     2
 67
     7
 79
     5
170
     0
171
     0
290
     0
174
     0
 93
        1
 44
0.0
173
     0
291
     0
 45
0.0
1001
ACAD
1000
AcDbSavedByObjectVersion
1070
     0
  0
VISUALSTYLE
  5
10021
102
{ACAD_XDICTIONARY
360
10A5A
102
}
102
{ACAD_REACTORS
330
1001C
102
}
330
1001C
100
AcDbVisualStyle
  2
Basic
 70
     7
 71
     1
 72
     0
 73
     1
 90
        0
 40
-0.6
 41
-30.0
 62
     5
 63
     7
 74
     0
 91
        4
 64
     7
 65
   257
 75
     1
175
     1
 42
1.0
 92
        8
 66
     7
 43
1.0
 76
     1
 77
     6
 78
     2
 67
     7
 79
     5
170
     0
171
     0
290
     0
174
     0
 93
        1
 44
0.0
173
     0
291
     1
 45
0.0
1001
ACAD
1000
AcDbSavedByObjectVersion
1070
     0
  0
VISUALSTYLE
  5
10028
102
{ACAD_XDICTIONARY
360
10A68
102
}
102
{ACAD_REACTORS
330
1001C
102
}
330
1001C
100
AcDbVisualStyle
  2
Brighten
 70
    12
 71
     2
 72
     2
 73
     0
 90
        0
 40
-0.6
 41
-30.0
 62
     5
 63
     7
 74
     1
 91
        4
 64
     7
 65
   257
 75
     1
175
     1
 42
1.0
 92
        8
 66
     7
 43
1.0
 76
     1
 77
     6
 78
     2
 67
     7
 79
     5
170
     0
171
     0
290
     0
174
     0
 93
        1
 44
50.0
173
     0
291
     1
 45
0.0
1001
ACAD
1000
AcDbSavedByObjectVersion
1070
     0
  0
VISUALSTYLE
  5
1002C
102
{ACAD_XDICTIONARY
360
10A70
102
}
102
{ACAD_REACTORS
330
1001C
102
}
330
1001C
100
AcDbVisualStyle
  2
ColorChange
 70
    16
 71
     2
 72
     2
 73
     3
 90
        0
 40
-0.6
 41
-30.0
 62
     5
 63
     8
 74
     1
 91
        4
 64
     7
 65
   257
 75
     1
175
     1
 42
1.0
 92
        8
 66
     8
 43
1.0
 76
     1
 77
     6
 78
     2
 67
     7
 79
     5
170
     0
171
     0
290
     0
174
     0
 93
        1
 44
0.0
173
     0
291
     1
 45
0.0
1001
ACAD
1000
AcDbSavedByObjectVersion
1070
     0
  0
VISUALSTYLE
  5
10025
102
{ACAD_XDICTIONARY
360
10A62
102
}
102
{ACAD_REACTORS
330
1001C
102
}
330
1001C
100
AcDbVisualStyle
  2
Conceptual
 70
     9
 71
     3
 72
     2
 73
     0
 90
        0
 40
-0.6
 41
-30.0
 62
     5
 63
     7
 74
     2
 91
        2
 64
     7
 65
   257
 75
     1
175
     1
 42
179.0
 92
        8
 66
     7
 43
1.0
 76
     1
 77
     6
 78
     2
 67
     7
 79
     3
170
     0
171
     0
290
     0
174
     0
 93
        1
 44
0.0
173
     0
291
     0
 45
0.0
1001
ACAD
1000
AcDbSavedByObjectVersion
1070
     0
  0
VISUALSTYLE
  5
10027
102
{ACAD_XDICTIONARY
360
10A66
102
}
102
{ACAD_REACTORS
330
1001C
102
}
330
1001C
100
AcDbVisualStyle
  2
Dim
 70
    11
 71
     2
 72
     2
 73
     0
 90
        0
 40
-0.6
 41
-30.0
 62
     5
 63
     7
 74
     1
 91
        4
 64
     7
 65
   257
 75
     1
175
     1
 42
1.0
 92
        8
 66
     7
 43
1.0
 76
     1
 77
     6
 78
     2
 67
     7
 79
     5
170
     0
171
     0
290
     0
174
     0
 93
        1
 44
-50.0
173
     0
291
     1
 45
0.0
1001
ACAD
1000
AcDbSavedByObjectVersion
1070
     0
  0
VISUALSTYLE
  5
10034
102
{ACAD_XDICTIONARY
360
10A80
102
}
102
{ACAD_REACTORS
330
1001C
102
}
330
1001C
100
AcDbVisualStyle
  2
EdgeColorOff
 70
    22
 71
     2
 72
     2
 73
     0
 90
        0
 40
-0.6
 41
-30.0
 62
     5
 63
     7
 74
     1
 91
        4
 64
     7
 65
   257
 75
     1
175
     1
 42
1.0
 92
        8
 66
     7
 43
1.0
 76
     1
 77
     6
 78
     2
 67
     7
 79
     5
170
     0
171
     0
290
     0
174
     0
 93
        1
 44
0.0
173
     0
291
     1
 45
0.0
1001
ACAD
1000
AcDbSavedByObjectVersion
1070
     0
  0
VISUALSTYLE
  5
1002B
102
{ACAD_XDICTIONARY
360
10A6E
102
}
102
{ACAD_REACTORS
330
1001C
102
}
330
1001C
100
AcDbVisualStyle
  2
Facepattern
 70
    15
 71
     2
 72
     2
 73
     0
 90
        0
 40
-0.6
 41
-30.0
 62
     5
 63
     7
 74
     1
 91
        4
 64
     7
 65
   257
 75
     1
175
     1
 42
1.0
 92
        8
 66
     7
 43
1.0
 76
     1
 77
     6
 78
     2
 67
     7
 79
     5
170
     0
171
     0
290
     0
174
     0
 93
        1
 44
0.0
173
     0
291
     1
 45
0.0
1001
ACAD
1000
AcDbSavedByObjectVersion
1070
     0
  0
VISUALSTYLE
  5
1001D
102
{ACAD_XDICTIONARY
360
10A52
102
}
102
{ACAD_REACTORS
330
1001C
102
}
330
1001C
100
AcDbVisualStyle
  2
Flat
 70
     0
 71
     2
 72
     1
 73
     1
 90
        2
 40
-0.6
 41
30.0
 62
     5
 63
     7
 74
     0
 91
        0
 64
     7
 65
   257
 75
     1
175
     1
 42
1.0
 92
        8
 66
     7
 43
1.0
 76
     1
 77
     6
 78
     2
 67
     7
 79
     5
170
     0
171
     0
290
     0
174
     0
 93
       13
 44
0.0
173
     0
291
     1
 45
0.0
1001
ACAD
1000
AcDbSavedByObjectVersion
1070
     0
  0
VISUALSTYLE
  5
1001E
102
{ACAD_XDICTIONARY
360
10A54
102
}
102
{ACAD_REACTORS
330
1001C
102
}
330
1001C
100
AcDbVisualStyle
  2
FlatWithEdges
 70
     1
 71
     2
 72
     1
 73
     1
 90
        2
 40
-0.6
 41
30.0
 62
     5
 63
     7
 74
     1
 91
        0
 64
     7
 65
   257
 75
     1
175
     1
 42
1.0
 92
        0
 66
   257
 43
1.0
 76
     1
 77
     6
 78
     2
 67
     7
 79
     5
170
     0
171
     0
290
     0
174
     0
 93
       13
 44
0.0
173
     0
291
     1
 45
0.0
1001
ACAD
1000
AcDbSavedByObjectVersion
1070
     0
  0
VISUALSTYLE
  5
1001F
102
{ACAD_XDICTIONARY
360
10A56
102
}
102
{ACAD_REACTORS
330
1001C
102
}
330
1001C
100
AcDbVisualStyle
  2
Gouraud
 70
     2
 71
     2
 72
     2
 73
     1
 90
        2
 40
-0.6
 41
30.0
 62
     5
 63
     7
 74
     0
 91
        0
 64
     7
 65
   257
 75
     1
175
     1
 42
1.0
 92
        0
 66
     7
 43
1.0
 76
     1
 77
     6
 78
     2
 67
     7
 79
     5
170
     0
171
     0
290
     0
174
     0
 93
       13
 44
0.0
173
     0
291
     1
 45
0.0
1001
ACAD
1000
AcDbSavedByObjectVersion
1070
     0
  0
VISUALSTYLE
  5
10020
102
{ACAD_XDICTIONARY
360
10A58
102
}
102
{ACAD_REACTORS
330
1001C
102
}
330
1001C
100
AcDbVisualStyle
  2
GouraudWithEdges
 70
     3
 71
     2
 72
     2
 73
     1
 90
        2
 40
-0.6
 41
30.0
 62
     5
 63
     7
 74
     1
 91
        0
 64
     7
 65
   257
 75
     1
175
     1
 42
1.0
 92
        0
 66
   257
 43
1.0
 76
     1
 77
     6
 78
     2
 67
     7
 79
     5
170
     0
171
     0
290
     0
174
     0
 93
       13
 44
0.0
173
     0
291
     1
 45
0.0
1001
ACAD
1000
AcDbSavedByObjectVersion
1070
     0
  0
VISUALSTYLE
  5
10024
102
{ACAD_XDICTIONARY
360
10A60
102
}
102
{ACAD_REACTORS
330
1001C
102
}
330
1001C
100
AcDbVisualStyle
  2
Hidden
 70
     6
 71
     1
 72
     2
 73
     2
 90
        0
 40
-0.6
 41
-30.0
 62
     5
 63
     7
 74
     2
 91
        2
 64
     7
 65
   257
 75
     2
175
     1
 42
40.0
 92
        0
 66
   257
 43
1.0
 76
     1
 77
     6
 78
     2
 67
     7
 79
     3
170
     0
171
     0
290
     0
174
     0
 93
        1
 44
0.0
173
     0
291
     0
 45
0.0
1001
ACAD
1000
AcDbSavedByObjectVersion
1070
     0
  0
VISUALSTYLE
  5
10032
102
{ACAD_XDICTIONARY
360
10A7C
102
}
102
{ACAD_REACTORS
330
1001C
102
}
330
1001C
100
AcDbVisualStyle
  2
JitterOff
 70
    20
 71
     2
 72
     2
 73
     0
 90
        0
 40
-0.6
 41
-30.0
 62
     5
 63
     7
 74
     1
 91
        4
 64
     7
 65
   257
 75
     1
175
     1
 42
1.0
 92
       10
 66
     7
 43
1.0
 76
     1
 77
     6
 78
     2
 67
     7
 79
     5
170
     0
171
     0
290
     0
174
     0
 93
        1
 44
0.0
173
     0
291
     1
 45
0.0
1001
ACAD
1000
AcDbSavedByObjectVersion
1070
     0
  0
VISUALSTYLE
  5
1002A
102
{ACAD_XDICTIONARY
360
10A6C
102
}
102
{ACAD_REACTORS
330
1001C
102
}
330
1001C
100
AcDbVisualStyle
  2
Linepattern
 70
    14
 71
     2
 72
     2
 73
     0
 90
        0
 40
-0.6
 41
-30.0
 62
     5
 63
     7
 74
     1
 91
        4
 64
     7
 65
   257
 75
     7
175
     7
 42
1.0
 92
        8
 66
     7
 43
1.0
 76
     1
 77
     6
 78
     2
 67
     7
 79
     5
170
     0
171
     0
290
     0
174
     0
 93
        1
 44
0.0
173
     0
291
     1
 45
0.0
1001
ACAD
1000
AcDbSavedByObjectVersion
1070
     0
  0
VISUALSTYLE
  5
10033
102
{ACAD_XDICTIONARY
360
10A7E
102
}
102
{ACAD_REACTORS
330
1001C
102
}
330
1001C
100
AcDbVisualStyle
  2
OverhangOff
 70
    21
 71
     2
 72
     2
 73
     0
 90
        0
 40
-0.6
 41
-30.0
 62
     5
 63
     7
 74
     1
 91
        4
 64
     7
 65
   257
 75
     1
175
     1
 42
1.0
 92
        9
 66
     7
 43
1.0
 76
     1
 77
     6
 78
     2
 67
     7
 79
     5
170
     0
171
     0
290
     0
174
     0
 93
        1
 44
0.0
173
     0
291
     1
 45
0.0
1001
ACAD
1000
AcDbSavedByObjectVersion
1070
     0
  0
VISUALSTYLE
  5
10026
102
{ACAD_XDICTIONARY
360
10A64
102
}
102
{ACAD_REACTORS
330
1001C
102
}
330
1001C
100
AcDbVisualStyle
  2
Realistic
 70
     8
 71
     2
 72
     3
 73
     0
 90
        2
 40
-0.6
 41
30.0
 62
     5
 63
     7
 74
     0
 91
        0
 64
     7
 65
   257
 75
     1
175
     1
 42
1.0
 92
        8
 66
   257
 43
1.0
 76
     1
 77
     6
 78
     2
 67
     7
 79
     3
170
     0
171
     0
290
     0
174
     0
 93
       13
 44
0.0
173
     0
291
     0
 45
0.0
1001
ACAD
1000
AcDbSavedByObjectVersion
1070
     0
  0
VISUALSTYLE
  5
10031
102
{ACAD_XDICTIONARY
360
10A7A
102
}
102
{ACAD_REACTORS
330
1001C
102
}
330
1001C
100
AcDbVisualStyle
  2
Shaded
 70
    27
 71
     2
 72
     2
 73
     1
 90
        2
 40
-0.6
 41
30.0
 62
     5
 63
     7
 74
     0
 91
        4
 64
     7
 65
   257
 75
     1
175
     1
 42
1.0
 92
        8
 66
   257
 43
1.0
 76
     1
 77
     6
 78
     2
 67
     8
 79
     3
170
     0
171
     0
290
     0
174
     0
 93
        5
 44
0.0
173
     0
291
     0
 45
0.0
1001
ACAD
1000
AcDbSavedByObjectVersion
1070
     0
  0
VISUALSTYLE
  5
10030
102
{ACAD_XDICTIONARY
360
10A78
102
}
102
{ACAD_REACTORS
330
1001C
102
}
330
1001C
100
AcDbVisualStyle
  2
Shaded with edges
 70
    26
 71
     2
 72
     2
 73
     1
 90
        2
 40
-0.6
 41
30.0
 62
     5
 63
     7
 74
     1
 91
        2
 64
     7
 65
   257
 75
     2
175
     1
 42
1.0
 92
        8
 66
   257
 43
1.0
 76
     1
 77
     6
 78
     2
 67
     7
 79
     3
170
     0
171
     0
290
     0
174
     0
 93
        5
 44
0.0
173
     0
291
     0
 45
0.0
1001
ACAD
1000
AcDbSavedByObjectVersion
1070
     0
  0
VISUALSTYLE
  5
1002D
102
{ACAD_XDICTIONARY
360
10A72
102
}
102
{ACAD_REACTORS
330
1001C
102
}
330
1001C
100
AcDbVisualStyle
  2
Shades of Gray
 70
    23
 71
     2
 72
     2
 73
     3
 90
        0
 40
-0.6
 41
-30.0
 62
     5
 63
     7
 74
     2
 91
        2
 64
     7
 65
     7
 75
     1
175
     1
 42
40.0
 92
        8
 66
     7
 43
1.0
 76
     1
 77
     6
 78
     2
 67
     7
 79
     3
170
     0
171
     0
290
     0
174
     0
 93
        1
 44
0.0
173
     0
291
     0
 45
0.0
1001
ACAD
1000
AcDbSavedByObjectVersion
1070
     0
  0
VISUALSTYLE
  5
1002E
102
{ACAD_XDICTIONARY
360
10A74
102
}
102
{ACAD_REACTORS
330
1001C
102
}
330
1001C
100
AcDbVisualStyle
  2
Sketchy
 70
    24
 71
     1
 72
     2
 73
     2
 90
        0
 40
-0.6
 41
-30.0
 62
     5
 63
     7
 74
     2
 91
        2
 64
     7
 65
     7
 75
     1
175
     1
 42
40.0
 92
       11
 66
     7
 43
1.0
 76
     1
 77
     6
 78
     2
 67
     7
 79
     6
170
     0
171
     0
290
     0
174
     0
 93
        1
 44
0.0
173
     0
291
     0
 45
0.0
1001
ACAD
1000
AcDbSavedByObjectVersion
1070
     0
  0
VISUALSTYLE
  5
10029
102
{ACAD_XDICTIONARY
360
10A6A
102
}
102
{ACAD_REACTORS
330
1001C
102
}
330
1001C
100
AcDbVisualStyle
  2
Thicken
 70
    13
 71
     2
 72
     2
 73
     0
 90
        0
 40
-0.6
 41
-30.0
 62
     5
 63
     7
 74
     1
 91
        4
 64
     7
 65
   257
 75
     1
175
     1
 42
1.0
 92
       12
 66
     7
 43
1.0
 76
     1
 77
     6
 78
     2
 67
     7
 79
     5
170
     0
171
     0
290
     0
174
     0
 93
        1
 44
0.0
173
     0
291
     1
 45
0.0
1001
ACAD
1000
AcDbSavedByObjectVersion
1070
     0
  0
VISUALSTYLE
  5
10023
102
{ACAD_XDICTIONARY
360
10A5E
102
}
102
{ACAD_REACTORS
330
1001C
102
}
330
1001C
100
AcDbVisualStyle
  2
Wireframe
 70
     5
 71
     0
 72
     2
 73
     0
 90
        0
 40
-0.6
 41
-30.0
 62
     5
 63
     7
 74
     1
 91
        4
 64
     7
 65
   257
 75
     1
175
     1
 42
1.0
 92
        0
 66
   257
 43
1.0
 76
     1
 77
     6
 78
     2
 67
     7
 79
     3
170
     0
171
     0
290
     0
174
     0
 93
        1
 44
0.0
173
     0
291
     0
 45
0.0
1001
ACAD
1000
AcDbSavedByObjectVersion
1070
     0
  0
VISUALSTYLE
  5
1002F
102
{ACAD_XDICTIONARY
360
10A76
102
}
102
{ACAD_REACTORS
330
1001C
102
}
330
1001C
100
AcDbVisualStyle
  2
X-Ray
 70
    25
 71
     2
 72
     2
 73
     1
 90
        1
 40
0.5
 41
-30.0
 62
     5
 63
     7
 74
     1
 91
        0
 64
     7
 65
   257
 75
     1
175
     1
 42
1.0
 92
        8
 66
     7
 43
1.0
 76
     1
 77
     6
 78
     2
 67
     7
 79
     3
170
     0
171
     0
290
     0
174
     0
 93
       13
 44
0.0
173
     0
291
     0
 45
0.0
1001
ACAD
1000
AcDbSavedByObjectVersion
1070
     0
  0
DICTIONARYVAR
  5
100A4
102
{ACAD_REACTORS
330
1009F
102
}
330
1009F
100
DictionaryVariables
280
     0
  1
1:1
  0
DICTIONARYVAR
  5
100A1
102
{ACAD_REACTORS
330
1009F
102
}
330
1009F
100
DictionaryVariables
280
     0
  1
STANDARD
  0
DICTIONARYVAR
  5
100A0
102
{ACAD_REACTORS
330
1009F
102
}
330
1009F
100
DictionaryVariables
280
     0
  1
STANDARD
  0
DICTIONARYVAR
  5
100A2
102
{ACAD_REACTORS
330
1009F
102
}
330
1009F
100
DictionaryVariables
280
     0
  1
Metric50
  0
DICTIONARYVAR
  5
100A3
102
{ACAD_REACTORS
330
1009F
102
}
330
1009F
100
DictionaryVariables
280
     0
  1
Metric50
  0
DICTIONARYVAR
  5
100A7
102
{ACAD_REACTORS
330
1009F
102
}
330
1009F
100
DictionaryVariables
280
     0
  1
1
  0
DICTIONARYVAR
  5
100A6
102
{ACAD_REACTORS
330
1009F
102
}
330
1009F
100
DictionaryVariables
280
     0
  1
0
  0
DICTIONARYVAR
  5
100A5
102
{ACAD_REACTORS
330
1009F
102
}
330
1009F
100
DictionaryVariables
280
     0
  1
127
  0
DICTIONARYVAR
  5
100A8
102
{ACAD_REACTORS
330
1009F
102
}
330
1009F
100
DictionaryVariables
280
     0
  1
2
  0
XRECORD
  5
10A8E
102
{ACAD_REACTORS
330
10A8D
102
}
330
10A8D
100
AcDbXrecord
280
     1
1070
     0
1070
     1
1070
     1
  0
XRECORD
  5
10A91
102
{ACAD_REACTORS
330
10A90
102
}
330
10A90
100
AcDbXrecord
280
     1
1070
     0
1070
     1
1070
     1
  0
XRECORD
  5
10A94
102
{ACAD_REACTORS
330
10A93
102
}
330
10A93
100
AcDbXrecord
280
     1
1070
     0
1070
     1
1070
     1
  0
XRECORD
  5
10A97
102
{ACAD_REACTORS
330
10A96
102
}
330
10A96
100
AcDbXrecord
280
     1
1070
     0
1070
     1
1070
     1
  0
DICTIONARY
  5
10A86
330
10050
100
AcDbDictionary
280
     1
281
     1
  3
ACAD_XREC_ROUNDTRIP
360
10A87
  0
DICTIONARY
  5
10A8A
330
10053
100
AcDbDictionary
280
     1
281
     1
  3
ACAD_XREC_ROUNDTRIP
360
10A8B
  0
DICTIONARY
  5
10A88
330
10052
100
AcDbDictionary
280
     1
281
     1
  3
ACAD_XREC_ROUNDTRIP
360
10A89
  0
DICTIONARY
  5
1000D
330
1000C
100
AcDbDictionary
280
     1
281
     1
  3
ACAD_XREC_ROUNDTRIP
360
10A50
  3
BUMPTILE
360
1000F
  3
DIFFUSETILE
360
1000E
  3
OPACITYTILE
360
10012
  3
REFLECTIONTILE
360
10011
  3
REFRACTIONTILE
360
10013
  3
SPECULARTILE
360
10010
  0
DICTIONARY
  5
10005
330
10004
100
AcDbDictionary
280
     1
281
     1
  3
ACAD_XREC_ROUNDTRIP
360
10A4F
  3
BUMPTILE
360
10007
  3
DIFFUSETILE
360
10006
  3
OPACITYTILE
360
1000A
  3
REFLECTIONTILE
360
10009
  3
REFRACTIONTILE
360
1000B
  3
SPECULARTILE
360
10008
  0
DICTIONARY
  5
10015
330
10014
100
AcDbDictionary
280
     1
281
     1
  3
ACAD_XREC_ROUNDTRIP
360
10A51
  3
BUMPTILE
360
10017
  3
DIFFUSETILE
360
10016
  3
OPACITYTILE
360
1001A
  3
REFLECTIONTILE
360
10019
  3
REFRACTIONTILE
360
1001B
  3
SPECULARTILE
360
10018
  0
DICTIONARY
  5
10A84
330
1004E
100
AcDbDictionary
280
     1
281
     1
  3
ACAD_XREC_ROUNDTRIP
360
10A85
  0
DICTIONARY
  5
10A4B
330
10038
100
AcDbDictionary
280
     1
281
     1
  3
ACAD_ROUNDTRIP_2008_TABLESTYLE_CELLSTYLEMAP
360
10A4C
  3
ACAD_XREC_ROUNDTRIP
360
10A82
  0
DICTIONARY
  5
10A5C
330
10022
100
AcDbDictionary
280
     1
281
     1
  3
ACAD_XREC_ROUNDTRIP
360
10A5D
  0
DICTIONARY
  5
10A5A
330
10021
100
AcDbDictionary
280
     1
281
     1
  3
ACAD_XREC_ROUNDTRIP
360
10A5B
  0
DICTIONARY
  5
10A68
330
10028
100
AcDbDictionary
280
     1
281
     1
  3
ACAD_XREC_ROUNDTRIP
360
10A69
  0
DICTIONARY
  5
10A70
330
1002C
100
AcDbDictionary
280
     1
281
     1
  3
ACAD_XREC_ROUNDTRIP
360
10A71
  0
DICTIONARY
  5
10A62
330
10025
100
AcDbDictionary
280
     1
281
     1
  3
ACAD_XREC_ROUNDTRIP
360
10A63
  0
DICTIONARY
  5
10A66
330
10027
100
AcDbDictionary
280
     1
281
     1
  3
ACAD_XREC_ROUNDTRIP
360
10A67
  0
DICTIONARY
  5
10A80
330
10034
100
AcDbDictionary
280
     1
281
     1
  3
ACAD_XREC_ROUNDTRIP
360
10A81
  0
DICTIONARY
  5
10A6E
330
1002B
100
AcDbDictionary
280
     1
281
     1
  3
ACAD_XREC_ROUNDTRIP
360
10A6F
  0
DICTIONARY
  5
10A52
330
1001D
100
AcDbDictionary
280
     1
281
     1
  3
ACAD_XREC_ROUNDTRIP
360
10A53
  0
DICTIONARY
  5
10A54
330
1001E
100
AcDbDictionary
280
     1
281
     1
  3
ACAD_XREC_ROUNDTRIP
360
10A55
  0
DICTIONARY
  5
10A56
330
1001F
100
AcDbDictionary
280
     1
281
     1
  3
ACAD_XREC_ROUNDTRIP
360
10A57
  0
DICTIONARY
  5
10A58
330
10020
100
AcDbDictionary
280
     1
281
     1
  3
ACAD_XREC_ROUNDTRIP
360
10A59
  0
DICTIONARY
  5
10A60
330
10024
100
AcDbDictionary
280
     1
281
     1
  3
ACAD_XREC_ROUNDTRIP
360
10A61
  0
DICTIONARY
  5
10A7C
330
10032
100
AcDbDictionary
280
     1
281
     1
  3
ACAD_XREC_ROUNDTRIP
360
10A7D
  0
DICTIONARY
  5
10A6C
330
1002A
100
AcDbDictionary
280
     1
281
     1
  3
ACAD_XREC_ROUNDTRIP
360
10A6D
  0
DICTIONARY
  5
10A7E
330
10033
100
AcDbDictionary
280
     1
281
     1
  3
ACAD_XREC_ROUNDTRIP
360
10A7F
  0
DICTIONARY
  5
10A64
330
10026
100
AcDbDictionary
280
     1
281
     1
  3
ACAD_XREC_ROUNDTRIP
360
10A65
  0
DICTIONARY
  5
10A7A
330
10031
100
AcDbDictionary
280
     1
281
     1
  3
ACAD_XREC_ROUNDTRIP
360
10A7B
  0
DICTIONARY
  5
10A78
330
10030
100
AcDbDictionary
280
     1
281
     1
  3
ACAD_XREC_ROUNDTRIP
360
10A79
  0
DICTIONARY
  5
10A72
330
1002D
100
AcDbDictionary
280
     1
281
     1
  3
ACAD_XREC_ROUNDTRIP
360
10A73
  0
DICTIONARY
  5
10A74
330
1002E
100
AcDbDictionary
280
     1
281
     1
  3
ACAD_XREC_ROUNDTRIP
360
10A75
  0
DICTIONARY
  5
10A6A
330
10029
100
AcDbDictionary
280
     1
281
     1
  3
ACAD_XREC_ROUNDTRIP
360
10A6B
  0
DICTIONARY
  5
10A5E
330
10023
100
AcDbDictionary
280
     1
281
     1
  3
ACAD_XREC_ROUNDTRIP
360
10A5F
  0
DICTIONARY
  5
10A76
330
1002F
100
AcDbDictionary
280
     1
281
     1
  3
ACAD_XREC_ROUNDTRIP
360
10A77
  0
XRECORD
  5
10A87
102
{ACAD_REACTORS
330
10A86
102
}
330
10A86
100
AcDbXrecord
280
     1
102
DISPLAYNAME
  1
Metric50
102
FLAGS
 90
        0
  0
XRECORD
  5
10A8B
102
{ACAD_REACTORS
330
10A8A
102
}
330
10A8A
100
AcDbXrecord
280
     1
102
SHADEPLOT
 70
     0
102
SHADEPLOTRESLEVEL
 70
     2
102
SHADEPLOTCUSTOMDPI
 70
   300
  0
XRECORD
  5
10A89
102
{ACAD_REACTORS
330
10A88
102
}
330
10A88
100
AcDbXrecord
280
     1
102
SHADEPLOT
 70
     0
102
SHADEPLOTRESLEVEL
 70
     2
102
SHADEPLOTCUSTOMDPI
 70
   300
  0
XRECORD
  5
10A50
102
{ACAD_REACTORS
330
1000D
102
}
330
1000D
100
AcDbXrecord
280
     1
102
MATERIAL
148
0.0
149
0.0
149
0.0
 93
        0
 94
      127
282
     0
 72
     0
 77
     0
171
     0
175
     0
179
     0
273
     0
  0
XRECORD
  5
1000F
102
{ACAD_REACTORS
330
1000D
102
}
330
1000D
100
AcDbXrecord
280
     1
270
     1
271
     1
  0
XRECORD
  5
1000E
102
{ACAD_REACTORS
330
1000D
102
}
330
1000D
100
AcDbXrecord
280
     1
270
     1
271
     1
  0
XRECORD
  5
10012
102
{ACAD_REACTORS
330
1000D
102
}
330
1000D
100
AcDbXrecord
280
     1
270
     1
271
     1
  0
XRECORD
  5
10011
102
{ACAD_REACTORS
330
1000D
102
}
330
1000D
100
AcDbXrecord
280
     1
270
     1
271
     1
  0
XRECORD
  5
10013
102
{ACAD_REACTORS
330
1000D
102
}
330
1000D
100
AcDbXrecord
280
     1
270
     1
271
     1
  0
XRECORD
  5
10010
102
{ACAD_REACTORS
330
1000D
102
}
330
1000D
100
AcDbXrecord
280
     1
270
     1
271
     1
  0
XRECORD
  5
10A4F
102
{ACAD_REACTORS
330
10005
102
}
330
10005
100
AcDbXrecord
280
     1
102
MATERIAL
148
0.0
149
0.0
149
0.0
 93
        0
 94
      127
282
     0
 72
     0
 77
     0
171
     0
175
     0
179
     0
273
     0
  0
XRECORD
  5
10007
102
{ACAD_REACTORS
330
10005
102
}
330
10005
100
AcDbXrecord
280
     1
270
     1
271
     1
  0
XRECORD
  5
10006
102
{ACAD_REACTORS
330
10005
102
}
330
10005
100
AcDbXrecord
280
     1
270
     1
271
     1
  0
XRECORD
  5
1000A
102
{ACAD_REACTORS
330
10005
102
}
330
10005
100
AcDbXrecord
280
     1
270
     1
271
     1
  0
XRECORD
  5
10009
102
{ACAD_REACTORS
330
10005
102
}
330
10005
100
AcDbXrecord
280
     1
270
     1
271
     1
  0
XRECORD
  5
1000B
102
{ACAD_REACTORS
330
10005
102
}
330
10005
100
AcDbXrecord
280
     1
270
     1
271
     1
  0
XRECORD
  5
10008
102
{ACAD_REACTORS
330
10005
102
}
330
10005
100
AcDbXrecord
280
     1
270
     1
271
     1
  0
XRECORD
  5
10A51
102
{ACAD_REACTORS
330
10015
102
}
330
10015
100
AcDbXrecord
280
     1
102
MATERIAL
148
0.0
149
0.0
149
0.0
 93
        0
 94
      127
282
     0
 72
     0
 77
     0
171
     0
175
     0
179
     0
273
     0
  0
XRECORD
  5
10017
102
{ACAD_REACTORS
330
10015
102
}
330
10015
100
AcDbXrecord
280
     1
270
     1
271
     1
  0
XRECORD
  5
10016
102
{ACAD_REACTORS
330
10015
102
}
330
10015
100
AcDbXrecord
280
     1
270
     1
271
     1
  0
XRECORD
  5
1001A
102
{ACAD_REACTORS
330
10015
102
}
330
10015
100
AcDbXrecord
280
     1
270
     1
271
     1
  0
XRECORD
  5
10019
102
{ACAD_REACTORS
330
10015
102
}
330
10015
100
AcDbXrecord
280
     1
270
     1
271
     1
  0
XRECORD
  5
1001B
102
{ACAD_REACTORS
330
10015
102
}
330
10015
100
AcDbXrecord
280
     1
270
     1
271
     1
  0
XRECORD
  5
10018
102
{ACAD_REACTORS
330
10015
102
}
330
10015
100
AcDbXrecord
280
     1
270
     1
271
     1
  0
XRECORD
  5
10A85
102
{ACAD_REACTORS
330
10A84
102
}
330
10A84
100
AcDbXrecord
280
     1
102
DISPLAYNAME
  1
Metric50
102
FLAGS
 90
        0
  0
CELLSTYLEMAP
  5
10A4C
102
{ACAD_REACTORS
330
10A4B
102
}
330
10A4B
100
AcDbCellStyleMap
 90
        3
300
CELLSTYLE
  1
TABLEFORMAT_BEGIN
 90
        5
170
     1
 91
        0
 92
    32768
 62
   257
 93
        1
300
CONTENTFORMAT
  1
CONTENTFORMAT_BEGIN
 90
        0
 91
        0
 92
      512
 93
        0
300

 40
0.0
140
1.0
 94
        5
 62
     0
340
11
144
6.0
309
CONTENTFORMAT_END
171
     1
301
MARGIN
  1
CELLMARGIN_BEGIN
 40
1.5
 40
1.5
 40
1.5
 40
1.5
 40
4.5
 40
4.5
309
CELLMARGIN_END
 94
        6
 95
        1
302
GRIDFORMAT
  1
GRIDFORMAT_BEGIN
 90
        0
 91
        1
 62
     0
 92
       -2
340
0
 93
        0
 40
1.125
309
GRIDFORMAT_END
 95
        2
302
GRIDFORMAT
  1
GRIDFORMAT_BEGIN
 90
        0
 91
        1
 62
     0
 92
       -2
340
0
 93
        0
 40
1.125
309
GRIDFORMAT_END
 95
        4
302
GRIDFORMAT
  1
GRIDFORMAT_BEGIN
 90
        0
 91
        1
 62
     0
 92
       -2
340
0
 93
        0
 40
1.125
309
GRIDFORMAT_END
 95
        8
302
GRIDFORMAT
  1
GRIDFORMAT_BEGIN
 90
        0
 91
        1
 62
     0
 92
       -2
340
0
 93
        0
 40
1.125
309
GRIDFORMAT_END
 95
       16
302
GRIDFORMAT
  1
GRIDFORMAT_BEGIN
 90
        0
 91
        1
 62
     0
 92
       -2
340
0
 93
        0
 40
1.125
309
GRIDFORMAT_END
 95
       32
302
GRIDFORMAT
  1
GRIDFORMAT_BEGIN
 90
        0
 91
        1
 62
     0
 92
       -2
340
0
 93
        0
 40
1.125
309
GRIDFORMAT_END
309
TABLEFORMAT_END
  1
CELLSTYLE_BEGIN
 90
        1
 91
        1
300
_TITLE
309
CELLSTYLE_END
300
CELLSTYLE
  1
TABLEFORMAT_BEGIN
 90
        5
170
     1
 91
        0
 92
        0
 62
   257
 93
        1
300
CONTENTFORMAT
  1
CONTENTFORMAT_BEGIN
 90
        0
 91
        0
 92
      512
 93
        0
300

 40
0.0
140
1.0
 94
        5
 62
     0
340
11
144
4.5
309
CONTENTFORMAT_END
171
     1
301
MARGIN
  1
CELLMARGIN_BEGIN
 40
1.5
 40
1.5
 40
1.5
 40
1.5
 40
4.5
 40
4.5
309
CELLMARGIN_END
 94
        6
 95
        1
302
GRIDFORMAT
  1
GRIDFORMAT_BEGIN
 90
        0
 91
        1
 62
     0
 92
       -2
340
0
 93
        0
 40
1.125
309
GRIDFORMAT_END
 95
        2
302
GRIDFORMAT
  1
GRIDFORMAT_BEGIN
 90
        0
 91
        1
 62
     0
 92
       -2
340
0
 93
        0
 40
1.125
309
GRIDFORMAT_END
 95
        4
302
GRIDFORMAT
  1
GRIDFORMAT_BEGIN
 90
        0
 91
        1
 62
     0
 92
       -2
340
0
 93
        0
 40
1.125
309
GRIDFORMAT_END
 95
        8
302
GRIDFORMAT
  1
GRIDFORMAT_BEGIN
 90
        0
 91
        1
 62
     0
 92
       -2
340
0
 93
        0
 40
1.125
309
GRIDFORMAT_END
 95
       16
302
GRIDFORMAT
  1
GRIDFORMAT_BEGIN
 90
        0
 91
        1
 62
     0
 92
       -2
340
0
 93
        0
 40
1.125
309
GRIDFORMAT_END
 95
       32
302
GRIDFORMAT
  1
GRIDFORMAT_BEGIN
 90
        0
 91
        1
 62
     0
 92
       -2
340
0
 93
        0
 40
1.125
309
GRIDFORMAT_END
309
TABLEFORMAT_END
  1
CELLSTYLE_BEGIN
 90
        2
 91
        1
300
_HEADER
309
CELLSTYLE_END
300
CELLSTYLE
  1
TABLEFORMAT_BEGIN
 90
        5
170
     1
 91
        0
 92
        0
 62
   257
 93
        1
300
CONTENTFORMAT
  1
CONTENTFORMAT_BEGIN
 90
        0
 91
        0
 92
      512
 93
        0
300

 40
0.0
140
1.0
 94
        2
 62
     0
340
11
144
4.5
309
CONTENTFORMAT_END
171
     1
301
MARGIN
  1
CELLMARGIN_BEGIN
 40
1.5
 40
1.5
 40
1.5
 40
1.5
 40
4.5
 40
4.5
309
CELLMARGIN_END
 94
        6
 95
        1
302
GRIDFORMAT
  1
GRIDFORMAT_BEGIN
 90
        0
 91
        1
 62
     0
 92
       -2
340
0
 93
        0
 40
1.125
309
GRIDFORMAT_END
 95
        2
302
GRIDFORMAT
  1
GRIDFORMAT_BEGIN
 90
        0
 91
        1
 62
     0
 92
       -2
340
0
 93
        0
 40
1.125
309
GRIDFORMAT_END
 95
        4
302
GRIDFORMAT
  1
GRIDFORMAT_BEGIN
 90
        0
 91
        1
 62
     0
 92
       -2
340
0
 93
        0
 40
1.125
309
GRIDFORMAT_END
 95
        8
302
GRIDFORMAT
  1
GRIDFORMAT_BEGIN
 90
        0
 91
        1
 62
     0
 92
       -2
340
0
 93
        0
 40
1.125
309
GRIDFORMAT_END
 95
       16
302
GRIDFORMAT
  1
GRIDFORMAT_BEGIN
 90
        0
 91
        1
 62
     0
 92
       -2
340
0
 93
        0
 40
1.125
309
GRIDFORMAT_END
 95
       32
302
GRIDFORMAT
  1
GRIDFORMAT_BEGIN
 90
        0
 91
        1
 62
     0
 92
       -2
340
0
 93
        0
 40
1.125
309
GRIDFORMAT_END
309
TABLEFORMAT_END
  1
CELLSTYLE_BEGIN
 90
        3
 91
        2
300
_DATA
309
CELLSTYLE_END
  0
XRECORD
  5
10A82
102
{ACAD_REACTORS
330
10A4B
102
}
330
10A4B
100
AcDbXrecord
280
     1
102
ACAD_ROUNDTRIP_PRE2007_TABLESTYLE
 90
      512
 91
        0
  1

 92
      512
 93
        0
  2

 94
      512
 95
        0
  3

  0
XRECORD
  5
10A5D
102
{ACAD_REACTORS
330
10A5C
102
}
330
10A5C
100
AcDbXrecord
280
     1
102
RTVSPost2010Prop28
280
     1
102
RTVSPost2010PropOp28
 70
     1
102
RTVSPost2010Prop29
280
     1
102
RTVSPost2010PropOp29
 70
     1
102
RTVSPost2010Prop30
280
     0
102
RTVSPost2010PropOp30
 70
     1
102
RTVSPost2010Prop31
280
     0
102
RTVSPost2010PropOp31
 70
     1
102
RTVSPost2010Prop32
280
     0
102
RTVSPost2010PropOp32
 70
     1
102
RTVSPost2010Prop33
280
     0
102
RTVSPost2010PropOp33
 70
     1
102
RTVSPost2010Prop34
280
     0
102
RTVSPost2010PropOp34
 70
     1
102
RTVSPost2010Prop35
280
     0
102
RTVSPost2010PropOp35
 70
     1
102
RTVSPost2010Prop36
280
     0
102
RTVSPost2010PropOp36
 70
     1
102
RTVSPost2010Prop37
 90
       50
102
RTVSPost2010PropOp37
 70
     1
102
RTVSPost2010Prop38
140
0.0
102
RTVSPost2010PropOp38
 70
     1
102
RTVSPost2010Prop39
140
1.0
102
RTVSPost2010PropOp39
 70
     1
102
RTVSPost2010Prop40
 90
        0
102
RTVSPost2010PropOp40
 70
     1
102
RTVSPost2010Prop41ColorIndex
 90
       18
102
RTVSPost2010Prop41ColorRGB
 90
        0
102
RTVSPost2010PropOp41
 70
     1
102
RTVSPost2010Prop42
 90
       50
102
RTVSPost2010PropOp42
 70
     1
102
RTVSPost2010Prop43
 90
        3
102
RTVSPost2010PropOp43
 70
     1
102
RTVSPost2010Prop44ColorIndex
 90
        5
102
RTVSPost2010Prop44ColorRGB
 90
      255
102
RTVSPost2010PropOp44
 70
     1
102
RTVSPost2010Prop45
280
     0
102
RTVSPost2010PropOp45
 70
     1
102
RTVSPost2010Prop46
 90
       50
102
RTVSPost2010PropOp46
 70
     1
102
RTVSPost2010Prop47
 90
       50
102
RTVSPost2010PropOp47
 70
     1
102
RTVSPost2010Prop48
 90
       50
102
RTVSPost2010PropOp48
 70
     1
102
RTVSPost2010Prop49
280
     0
102
RTVSPost2010PropOp49
 70
     1
102
RTVSPost2010Prop50
 90
       50
102
RTVSPost2010PropOp50
 70
     1
102
RTVSPost2010Prop51ColorIndex
 90
      256
102
RTVSPost2010Prop51ColorRGB
 90
-16777216
102
RTVSPost2010PropOp51
 70
     0
102
RTVSPost2010Prop52
140
1.0
102
RTVSPost2010PropOp52
 70
     0
102
RTVSPost2010Prop53
 90
        2
102
RTVSPost2010PropOp53
 70
     1
102
RTVSPost2010Prop54
  1
strokes_ogs.tif
102
RTVSPost2010PropOp54
 70
     1
102
RTVSPost2010Prop55
280
     0
102
RTVSPost2010PropOp55
 70
     1
102
RTVSPost2010Prop56
140
1.0
102
RTVSPost2010PropOp56
 70
     1
102
RTVSPost2010Prop57
140
1.0
102
RTVSPost2010PropOp57
 70
     1
102
RTVSPropertyOp0
 70
     1
102
RTVSPropertyOp1
 70
     1
102
RTVSPropertyOp2
 70
     1
102
RTVSPropertyOp3
 70
     1
102
RTVSPropertyOp4
 70
     1
102
RTVSPropertyOp5
 70
     1
102
RTVSPropertyOp6
 70
     1
102
RTVSPropertyOp7
 70
     1
102
RTVSPropertyOp8
 70
     1
102
RTVSPropertyOp9
 70
     1
102
RTVSPropertyOp10
 70
     1
102
RTVSPropertyOp11
 70
     1
102
RTVSPropertyOp12
 70
     1
102
RTVSPropertyOp13
 70
     1
102
RTVSPropertyOp14
 70
     1
102
RTVSPropertyOp15
 70
     1
102
RTVSPropertyOp16
 70
     1
102
RTVSPropertyOp17
 70
     1
102
RTVSPropertyOp18
 70
     1
102
RTVSPropertyOp19
 70
     1
102
RTVSPropertyOp20
 70
     1
102
RTVSPropertyOp21
 70
     1
102
RTVSPropertyOp22
 70
     1
102
RTVSPropertyOp23
 70
     1
102
RTVSPropertyOp24
 70
     1
102
RTVSPropertyOp25
 70
     1
102
RTVSPropertyOp26
 70
     1
102
RTVSPropertyOp27
 70
     1
102
RTVSPropertyOp28
 70
     1
102
RTVSPropertyOp29
 70
     1
102
RTVSPropertyOp30
 70
     1
102
RTVSPropertyOp31
 70
     1
102
RTVSPropertyOp32
 70
     1
102
RTVSPropertyOp33
 70
     1
102
RTVSPropertyOp34
 70
     1
102
RTVSPropertyOp35
 70
     1
102
RTVSPropertyOp36
 70
     1
102
RTVSPropertyOp37
 70
     1
102
RTVSPropertyOp38
 70
     1
102
RTVSPropertyOp39
 70
     1
102
RTVSPropertyOp40
 70
     1
102
RTVSPropertyOp41
 70
     1
102
RTVSPropertyOp42
 70
     1
102
RTVSPropertyOp43
 70
     1
102
RTVSPropertyOp44
 70
     1
102
RTVSPropertyOp45
 70
     1
102
RTVSPropertyOp46
 70
     1
102
RTVSPropertyOp47
 70
     1
102
RTVSPropertyOp48
 70
     1
102
RTVSPropertyOp49
 70
     1
102
RTVSPropertyOp50
 70
     1
102
RTVSPropertyOp51
 70
     0
102
RTVSPropertyOp52
 70
     0
102
RTVSPropertyOp53
 70
     1
102
RTVSPropertyOp54
 70
     1
102
RTVSPropertyOp55
 70
     1
102
RTVSPropertyOp56
 70
     1
102
RTVSPropertyOp57
 70
     1
102
RTVSPropertyOp58
 70
     1
102
RTVSPropertyOp59
 70
     1
102
RTVSPropertyOp60
 70
     1
102
RTVSPropertyOp61
 70
     1
102
RTVSPropertyOp62
 70
     1
  0
XRECORD
  5
10A5B
102
{ACAD_REACTORS
330
10A5A
102
}
330
10A5A
100
AcDbXrecord
280
     1
102
RTVSPost2010Prop28
280
     0
102
RTVSPost2010PropOp28
 70
     1
102
RTVSPost2010Prop29
280
     1
102
RTVSPost2010PropOp29
 70
     1
102
RTVSPost2010Prop30
280
     1
102
RTVSPost2010PropOp30
 70
     1
102
RTVSPost2010Prop31
280
     0
102
RTVSPost2010PropOp31
 70
     1
102
RTVSPost2010Prop32
280
     0
102
RTVSPost2010PropOp32
 70
     1
102
RTVSPost2010Prop33
280
     0
102
RTVSPost2010PropOp33
 70
     1
102
RTVSPost2010Prop34
280
     0
102
RTVSPost2010PropOp34
 70
     1
102
RTVSPost2010Prop35
280
     0
102
RTVSPost2010PropOp35
 70
     1
102
RTVSPost2010Prop36
280
     0
102
RTVSPost2010PropOp36
 70
     1
102
RTVSPost2010Prop37
 90
       50
102
RTVSPost2010PropOp37
 70
     1
102
RTVSPost2010Prop38
140
0.0
102
RTVSPost2010PropOp38
 70
     1
102
RTVSPost2010Prop39
140
1.0
102
RTVSPost2010PropOp39
 70
     1
102
RTVSPost2010Prop40
 90
        0
102
RTVSPost2010PropOp40
 70
     1
102
RTVSPost2010Prop41ColorIndex
 90
       18
102
RTVSPost2010Prop41ColorRGB
 90
        0
102
RTVSPost2010PropOp41
 70
     1
102
RTVSPost2010Prop42
 90
       50
102
RTVSPost2010PropOp42
 70
     1
102
RTVSPost2010Prop43
 90
        3
102
RTVSPost2010PropOp43
 70
     1
102
RTVSPost2010Prop44ColorIndex
 90
        5
102
RTVSPost2010Prop44ColorRGB
 90
      255
102
RTVSPost2010PropOp44
 70
     1
102
RTVSPost2010Prop45
280
     0
102
RTVSPost2010PropOp45
 70
     1
102
RTVSPost2010Prop46
 90
       50
102
RTVSPost2010PropOp46
 70
     1
102
RTVSPost2010Prop47
 90
       50
102
RTVSPost2010PropOp47
 70
     1
102
RTVSPost2010Prop48
 90
       50
102
RTVSPost2010PropOp48
 70
     1
102
RTVSPost2010Prop49
280
     0
102
RTVSPost2010PropOp49
 70
     1
102
RTVSPost2010Prop50
 90
       50
102
RTVSPost2010PropOp50
 70
     1
102
RTVSPost2010Prop51ColorIndex
 90
      256
102
RTVSPost2010Prop51ColorRGB
 90
-16777216
102
RTVSPost2010PropOp51
 70
     0
102
RTVSPost2010Prop52
140
1.0
102
RTVSPost2010PropOp52
 70
     0
102
RTVSPost2010Prop53
 90
        2
102
RTVSPost2010PropOp53
 70
     1
102
RTVSPost2010Prop54
  1
strokes_ogs.tif
102
RTVSPost2010PropOp54
 70
     1
102
RTVSPost2010Prop55
280
     0
102
RTVSPost2010PropOp55
 70
     1
102
RTVSPost2010Prop56
140
1.0
102
RTVSPost2010PropOp56
 70
     1
102
RTVSPost2010Prop57
140
1.0
102
RTVSPost2010PropOp57
 70
     1
102
RTVSPropertyOp0
 70
     1
102
RTVSPropertyOp1
 70
     1
102
RTVSPropertyOp2
 70
     1
102
RTVSPropertyOp3
 70
     1
102
RTVSPropertyOp4
 70
     1
102
RTVSPropertyOp5
 70
     1
102
RTVSPropertyOp6
 70
     1
102
RTVSPropertyOp7
 70
     1
102
RTVSPropertyOp8
 70
     1
102
RTVSPropertyOp9
 70
     1
102
RTVSPropertyOp10
 70
     1
102
RTVSPropertyOp11
 70
     1
102
RTVSPropertyOp12
 70
     1
102
RTVSPropertyOp13
 70
     1
102
RTVSPropertyOp14
 70
     1
102
RTVSPropertyOp15
 70
     1
102
RTVSPropertyOp16
 70
     1
102
RTVSPropertyOp17
 70
     1
102
RTVSPropertyOp18
 70
     1
102
RTVSPropertyOp19
 70
     1
102
RTVSPropertyOp20
 70
     1
102
RTVSPropertyOp21
 70
     1
102
RTVSPropertyOp22
 70
     1
102
RTVSPropertyOp23
 70
     1
102
RTVSPropertyOp24
 70
     1
102
RTVSPropertyOp25
 70
     1
102
RTVSPropertyOp26
 70
     1
102
RTVSPropertyOp27
 70
     1
102
RTVSPropertyOp28
 70
     1
102
RTVSPropertyOp29
 70
     1
102
RTVSPropertyOp30
 70
     1
102
RTVSPropertyOp31
 70
     1
102
RTVSPropertyOp32
 70
     1
102
RTVSPropertyOp33
 70
     1
102
RTVSPropertyOp34
 70
     1
102
RTVSPropertyOp35
 70
     1
102
RTVSPropertyOp36
 70
     1
102
RTVSPropertyOp37
 70
     1
102
RTVSPropertyOp38
 70
     1
102
RTVSPropertyOp39
 70
     1
102
RTVSPropertyOp40
 70
     1
102
RTVSPropertyOp41
 70
     1
102
RTVSPropertyOp42
 70
     1
102
RTVSPropertyOp43
 70
     1
102
RTVSPropertyOp44
 70
     1
102
RTVSPropertyOp45
 70
     1
102
RTVSPropertyOp46
 70
     1
102
RTVSPropertyOp47
 70
     1
102
RTVSPropertyOp48
 70
     1
102
RTVSPropertyOp49
 70
     1
102
RTVSPropertyOp50
 70
     1
102
RTVSPropertyOp51
 70
     0
102
RTVSPropertyOp52
 70
     0
102
RTVSPropertyOp53
 70
     1
102
RTVSPropertyOp54
 70
     1
102
RTVSPropertyOp55
 70
     1
102
RTVSPropertyOp56
 70
     1
102
RTVSPropertyOp57
 70
     1
102
RTVSPropertyOp58
 70
     1
102
RTVSPropertyOp59
 70
     1
102
RTVSPropertyOp60
 70
     1
102
RTVSPropertyOp61
 70
     1
102
RTVSPropertyOp62
 70
     1
  0
XRECORD
  5
10A69
102
{ACAD_REACTORS
330
10A68
102
}
330
10A68
100
AcDbXrecord
280
     1
102
RTVSPost2010Prop28
280
     0
102
RTVSPost2010PropOp28
 70
     1
102
RTVSPost2010Prop29
280
     1
102
RTVSPost2010PropOp29
 70
     1
102
RTVSPost2010Prop30
280
     1
102
RTVSPost2010PropOp30
 70
     1
102
RTVSPost2010Prop31
280
     0
102
RTVSPost2010PropOp31
 70
     1
102
RTVSPost2010Prop32
280
     0
102
RTVSPost2010PropOp32
 70
     1
102
RTVSPost2010Prop33
280
     0
102
RTVSPost2010PropOp33
 70
     1
102
RTVSPost2010Prop34
280
     0
102
RTVSPost2010PropOp34
 70
     1
102
RTVSPost2010Prop35
280
     0
102
RTVSPost2010PropOp35
 70
     1
102
RTVSPost2010Prop36
280
     0
102
RTVSPost2010PropOp36
 70
     1
102
RTVSPost2010Prop37
 90
       50
102
RTVSPost2010PropOp37
 70
     1
102
RTVSPost2010Prop38
140
0.0
102
RTVSPost2010PropOp38
 70
     1
102
RTVSPost2010Prop39
140
1.0
102
RTVSPost2010PropOp39
 70
     1
102
RTVSPost2010Prop40
 90
        0
102
RTVSPost2010PropOp40
 70
     1
102
RTVSPost2010Prop41ColorIndex
 90
       18
102
RTVSPost2010Prop41ColorRGB
 90
        0
102
RTVSPost2010PropOp41
 70
     1
102
RTVSPost2010Prop42
 90
       50
102
RTVSPost2010PropOp42
 70
     1
102
RTVSPost2010Prop43
 90
        3
102
RTVSPost2010PropOp43
 70
     1
102
RTVSPost2010Prop44ColorIndex
 90
        5
102
RTVSPost2010Prop44ColorRGB
 90
      255
102
RTVSPost2010PropOp44
 70
     1
102
RTVSPost2010Prop45
280
     0
102
RTVSPost2010PropOp45
 70
     1
102
RTVSPost2010Prop46
 90
       50
102
RTVSPost2010PropOp46
 70
     1
102
RTVSPost2010Prop47
 90
       50
102
RTVSPost2010PropOp47
 70
     1
102
RTVSPost2010Prop48
 90
       50
102
RTVSPost2010PropOp48
 70
     1
102
RTVSPost2010Prop49
280
     0
102
RTVSPost2010PropOp49
 70
     1
102
RTVSPost2010Prop50
 90
       50
102
RTVSPost2010PropOp50
 70
     1
102
RTVSPost2010Prop51ColorIndex
 90
      256
102
RTVSPost2010Prop51ColorRGB
 90
-16777216
102
RTVSPost2010PropOp51
 70
     0
102
RTVSPost2010Prop52
140
1.0
102
RTVSPost2010PropOp52
 70
     0
102
RTVSPost2010Prop53
 90
        2
102
RTVSPost2010PropOp53
 70
     1
102
RTVSPost2010Prop54
  1
strokes_ogs.tif
102
RTVSPost2010PropOp54
 70
     1
102
RTVSPost2010Prop55
280
     0
102
RTVSPost2010PropOp55
 70
     1
102
RTVSPost2010Prop56
140
1.0
102
RTVSPost2010PropOp56
 70
     1
102
RTVSPost2010Prop57
140
1.0
102
RTVSPost2010PropOp57
 70
     1
102
RTVSPropertyOp0
 70
     1
102
RTVSPropertyOp1
 70
     1
102
RTVSPropertyOp2
 70
     1
102
RTVSPropertyOp3
 70
     1
102
RTVSPropertyOp4
 70
     1
102
RTVSPropertyOp5
 70
     1
102
RTVSPropertyOp6
 70
     1
102
RTVSPropertyOp7
 70
     1
102
RTVSPropertyOp8
 70
     1
102
RTVSPropertyOp9
 70
     1
102
RTVSPropertyOp10
 70
     1
102
RTVSPropertyOp11
 70
     1
102
RTVSPropertyOp12
 70
     1
102
RTVSPropertyOp13
 70
     1
102
RTVSPropertyOp14
 70
     1
102
RTVSPropertyOp15
 70
     1
102
RTVSPropertyOp16
 70
     1
102
RTVSPropertyOp17
 70
     1
102
RTVSPropertyOp18
 70
     1
102
RTVSPropertyOp19
 70
     1
102
RTVSPropertyOp20
 70
     1
102
RTVSPropertyOp21
 70
     1
102
RTVSPropertyOp22
 70
     1
102
RTVSPropertyOp23
 70
     1
102
RTVSPropertyOp24
 70
     1
102
RTVSPropertyOp25
 70
     1
102
RTVSPropertyOp26
 70
     1
102
RTVSPropertyOp27
 70
     1
102
RTVSPropertyOp28
 70
     1
102
RTVSPropertyOp29
 70
     1
102
RTVSPropertyOp30
 70
     1
102
RTVSPropertyOp31
 70
     1
102
RTVSPropertyOp32
 70
     1
102
RTVSPropertyOp33
 70
     1
102
RTVSPropertyOp34
 70
     1
102
RTVSPropertyOp35
 70
     1
102
RTVSPropertyOp36
 70
     1
102
RTVSPropertyOp37
 70
     1
102
RTVSPropertyOp38
 70
     1
102
RTVSPropertyOp39
 70
     1
102
RTVSPropertyOp40
 70
     1
102
RTVSPropertyOp41
 70
     1
102
RTVSPropertyOp42
 70
     1
102
RTVSPropertyOp43
 70
     1
102
RTVSPropertyOp44
 70
     1
102
RTVSPropertyOp45
 70
     1
102
RTVSPropertyOp46
 70
     1
102
RTVSPropertyOp47
 70
     1
102
RTVSPropertyOp48
 70
     1
102
RTVSPropertyOp49
 70
     1
102
RTVSPropertyOp50
 70
     1
102
RTVSPropertyOp51
 70
     0
102
RTVSPropertyOp52
 70
     0
102
RTVSPropertyOp53
 70
     1
102
RTVSPropertyOp54
 70
     1
102
RTVSPropertyOp55
 70
     1
102
RTVSPropertyOp56
 70
     1
102
RTVSPropertyOp57
 70
     1
102
RTVSPropertyOp58
 70
     1
102
RTVSPropertyOp59
 70
     1
102
RTVSPropertyOp60
 70
     1
102
RTVSPropertyOp61
 70
     1
102
RTVSPropertyOp62
 70
     1
  0
XRECORD
  5
10A71
102
{ACAD_REACTORS
330
10A70
102
}
330
10A70
100
AcDbXrecord
280
     1
102
RTVSPost2010Prop28
280
     0
102
RTVSPost2010PropOp28
 70
     1
102
RTVSPost2010Prop29
280
     1
102
RTVSPost2010PropOp29
 70
     1
102
RTVSPost2010Prop30
280
     1
102
RTVSPost2010PropOp30
 70
     1
102
RTVSPost2010Prop31
280
     0
102
RTVSPost2010PropOp31
 70
     1
102
RTVSPost2010Prop32
280
     0
102
RTVSPost2010PropOp32
 70
     1
102
RTVSPost2010Prop33
280
     0
102
RTVSPost2010PropOp33
 70
     1
102
RTVSPost2010Prop34
280
     0
102
RTVSPost2010PropOp34
 70
     1
102
RTVSPost2010Prop35
280
     0
102
RTVSPost2010PropOp35
 70
     1
102
RTVSPost2010Prop36
280
     0
102
RTVSPost2010PropOp36
 70
     1
102
RTVSPost2010Prop37
 90
       50
102
RTVSPost2010PropOp37
 70
     1
102
RTVSPost2010Prop38
140
0.0
102
RTVSPost2010PropOp38
 70
     1
102
RTVSPost2010Prop39
140
1.0
102
RTVSPost2010PropOp39
 70
     1
102
RTVSPost2010Prop40
 90
        0
102
RTVSPost2010PropOp40
 70
     1
102
RTVSPost2010Prop41ColorIndex
 90
       18
102
RTVSPost2010Prop41ColorRGB
 90
        0
102
RTVSPost2010PropOp41
 70
     1
102
RTVSPost2010Prop42
 90
       50
102
RTVSPost2010PropOp42
 70
     1
102
RTVSPost2010Prop43
 90
        3
102
RTVSPost2010PropOp43
 70
     1
102
RTVSPost2010Prop44ColorIndex
 90
        5
102
RTVSPost2010Prop44ColorRGB
 90
      255
102
RTVSPost2010PropOp44
 70
     1
102
RTVSPost2010Prop45
280
     0
102
RTVSPost2010PropOp45
 70
     1
102
RTVSPost2010Prop46
 90
       50
102
RTVSPost2010PropOp46
 70
     1
102
RTVSPost2010Prop47
 90
       50
102
RTVSPost2010PropOp47
 70
     1
102
RTVSPost2010Prop48
 90
       50
102
RTVSPost2010PropOp48
 70
     1
102
RTVSPost2010Prop49
280
     0
102
RTVSPost2010PropOp49
 70
     1
102
RTVSPost2010Prop50
 90
       50
102
RTVSPost2010PropOp50
 70
     1
102
RTVSPost2010Prop51ColorIndex
 90
      256
102
RTVSPost2010Prop51ColorRGB
 90
-16777216
102
RTVSPost2010PropOp51
 70
     0
102
RTVSPost2010Prop52
140
1.0
102
RTVSPost2010PropOp52
 70
     0
102
RTVSPost2010Prop53
 90
        2
102
RTVSPost2010PropOp53
 70
     1
102
RTVSPost2010Prop54
  1
strokes_ogs.tif
102
RTVSPost2010PropOp54
 70
     1
102
RTVSPost2010Prop55
280
     0
102
RTVSPost2010PropOp55
 70
     1
102
RTVSPost2010Prop56
140
1.0
102
RTVSPost2010PropOp56
 70
     1
102
RTVSPost2010Prop57
140
1.0
102
RTVSPost2010PropOp57
 70
     1
102
RTVSPropertyOp0
 70
     1
102
RTVSPropertyOp1
 70
     1
102
RTVSPropertyOp2
 70
     1
102
RTVSPropertyOp3
 70
     1
102
RTVSPropertyOp4
 70
     1
102
RTVSPropertyOp5
 70
     1
102
RTVSPropertyOp6
 70
     1
102
RTVSPropertyOp7
 70
     1
102
RTVSPropertyOp8
 70
     1
102
RTVSPropertyOp9
 70
     1
102
RTVSPropertyOp10
 70
     1
102
RTVSPropertyOp11
 70
     1
102
RTVSPropertyOp12
 70
     1
102
RTVSPropertyOp13
 70
     1
102
RTVSPropertyOp14
 70
     1
102
RTVSPropertyOp15
 70
     1
102
RTVSPropertyOp16
 70
     1
102
RTVSPropertyOp17
 70
     1
102
RTVSPropertyOp18
 70
     1
102
RTVSPropertyOp19
 70
     1
102
RTVSPropertyOp20
 70
     1
102
RTVSPropertyOp21
 70
     1
102
RTVSPropertyOp22
 70
     1
102
RTVSPropertyOp23
 70
     1
102
RTVSPropertyOp24
 70
     1
102
RTVSPropertyOp25
 70
     1
102
RTVSPropertyOp26
 70
     1
102
RTVSPropertyOp27
 70
     1
102
RTVSPropertyOp28
 70
     1
102
RTVSPropertyOp29
 70
     1
102
RTVSPropertyOp30
 70
     1
102
RTVSPropertyOp31
 70
     1
102
RTVSPropertyOp32
 70
     1
102
RTVSPropertyOp33
 70
     1
102
RTVSPropertyOp34
 70
     1
102
RTVSPropertyOp35
 70
     1
102
RTVSPropertyOp36
 70
     1
102
RTVSPropertyOp37
 70
     1
102
RTVSPropertyOp38
 70
     1
102
RTVSPropertyOp39
 70
     1
102
RTVSPropertyOp40
 70
     1
102
RTVSPropertyOp41
 70
     1
102
RTVSPropertyOp42
 70
     1
102
RTVSPropertyOp43
 70
     1
102
RTVSPropertyOp44
 70
     1
102
RTVSPropertyOp45
 70
     1
102
RTVSPropertyOp46
 70
     1
102
RTVSPropertyOp47
 70
     1
102
RTVSPropertyOp48
 70
     1
102
RTVSPropertyOp49
 70
     1
102
RTVSPropertyOp50
 70
     1
102
RTVSPropertyOp51
 70
     0
102
RTVSPropertyOp52
 70
     0
102
RTVSPropertyOp53
 70
     1
102
RTVSPropertyOp54
 70
     1
102
RTVSPropertyOp55
 70
     1
102
RTVSPropertyOp56
 70
     1
102
RTVSPropertyOp57
 70
     1
102
RTVSPropertyOp58
 70
     1
102
RTVSPropertyOp59
 70
     1
102
RTVSPropertyOp60
 70
     1
102
RTVSPropertyOp61
 70
     1
102
RTVSPropertyOp62
 70
     1
  0
XRECORD
  5
10A63
102
{ACAD_REACTORS
330
10A62
102
}
330
10A62
100
AcDbXrecord
280
     1
102
RTVSPost2010Prop28
280
     0
102
RTVSPost2010PropOp28
 70
     1
102
RTVSPost2010Prop29
280
     1
102
RTVSPost2010PropOp29
 70
     1
102
RTVSPost2010Prop30
280
     1
102
RTVSPost2010PropOp30
 70
     1
102
RTVSPost2010Prop31
280
     0
102
RTVSPost2010PropOp31
 70
     1
102
RTVSPost2010Prop32
280
     0
102
RTVSPost2010PropOp32
 70
     1
102
RTVSPost2010Prop33
280
     0
102
RTVSPost2010PropOp33
 70
     1
102
RTVSPost2010Prop34
280
     0
102
RTVSPost2010PropOp34
 70
     1
102
RTVSPost2010Prop35
280
     0
102
RTVSPost2010PropOp35
 70
     1
102
RTVSPost2010Prop36
280
     0
102
RTVSPost2010PropOp36
 70
     1
102
RTVSPost2010Prop37
 90
       50
102
RTVSPost2010PropOp37
 70
     1
102
RTVSPost2010Prop38
140
0.0
102
RTVSPost2010PropOp38
 70
     1
102
RTVSPost2010Prop39
140
1.0
102
RTVSPost2010PropOp39
 70
     1
102
RTVSPost2010Prop40
 90
        0
102
RTVSPost2010PropOp40
 70
     1
102
RTVSPost2010Prop41ColorIndex
 90
       18
102
RTVSPost2010Prop41ColorRGB
 90
        0
102
RTVSPost2010PropOp41
 70
     1
102
RTVSPost2010Prop42
 90
       50
102
RTVSPost2010PropOp42
 70
     1
102
RTVSPost2010Prop43
 90
        3
102
RTVSPost2010PropOp43
 70
     1
102
RTVSPost2010Prop44ColorIndex
 90
        5
102
RTVSPost2010Prop44ColorRGB
 90
      255
102
RTVSPost2010PropOp44
 70
     1
102
RTVSPost2010Prop45
280
     0
102
RTVSPost2010PropOp45
 70
     1
102
RTVSPost2010Prop46
 90
       50
102
RTVSPost2010PropOp46
 70
     1
102
RTVSPost2010Prop47
 90
       50
102
RTVSPost2010PropOp47
 70
     1
102
RTVSPost2010Prop48
 90
       50
102
RTVSPost2010PropOp48
 70
     1
102
RTVSPost2010Prop49
280
     0
102
RTVSPost2010PropOp49
 70
     1
102
RTVSPost2010Prop50
 90
       50
102
RTVSPost2010PropOp50
 70
     1
102
RTVSPost2010Prop51ColorIndex
 90
      256
102
RTVSPost2010Prop51ColorRGB
 90
-16777216
102
RTVSPost2010PropOp51
 70
     0
102
RTVSPost2010Prop52
140
1.0
102
RTVSPost2010PropOp52
 70
     0
102
RTVSPost2010Prop53
 90
        2
102
RTVSPost2010PropOp53
 70
     1
102
RTVSPost2010Prop54
  1
strokes_ogs.tif
102
RTVSPost2010PropOp54
 70
     1
102
RTVSPost2010Prop55
280
     0
102
RTVSPost2010PropOp55
 70
     1
102
RTVSPost2010Prop56
140
1.0
102
RTVSPost2010PropOp56
 70
     1
102
RTVSPost2010Prop57
140
1.0
102
RTVSPost2010PropOp57
 70
     1
102
RTVSPropertyOp0
 70
     1
102
RTVSPropertyOp1
 70
     1
102
RTVSPropertyOp2
 70
     1
102
RTVSPropertyOp3
 70
     1
102
RTVSPropertyOp4
 70
     1
102
RTVSPropertyOp5
 70
     1
102
RTVSPropertyOp6
 70
     1
102
RTVSPropertyOp7
 70
     1
102
RTVSPropertyOp8
 70
     1
102
RTVSPropertyOp9
 70
     1
102
RTVSPropertyOp10
 70
     1
102
RTVSPropertyOp11
 70
     1
102
RTVSPropertyOp12
 70
     1
102
RTVSPropertyOp13
 70
     1
102
RTVSPropertyOp14
 70
     1
102
RTVSPropertyOp15
 70
     1
102
RTVSPropertyOp16
 70
     1
102
RTVSPropertyOp17
 70
     1
102
RTVSPropertyOp18
 70
     1
102
RTVSPropertyOp19
 70
     1
102
RTVSPropertyOp20
 70
     1
102
RTVSPropertyOp21
 70
     1
102
RTVSPropertyOp22
 70
     1
102
RTVSPropertyOp23
 70
     1
102
RTVSPropertyOp24
 70
     1
102
RTVSPropertyOp25
 70
     1
102
RTVSPropertyOp26
 70
     1
102
RTVSPropertyOp27
 70
     1
102
RTVSPropertyOp28
 70
     1
102
RTVSPropertyOp29
 70
     1
102
RTVSPropertyOp30
 70
     1
102
RTVSPropertyOp31
 70
     1
102
RTVSPropertyOp32
 70
     1
102
RTVSPropertyOp33
 70
     1
102
RTVSPropertyOp34
 70
     1
102
RTVSPropertyOp35
 70
     1
102
RTVSPropertyOp36
 70
     1
102
RTVSPropertyOp37
 70
     1
102
RTVSPropertyOp38
 70
     1
102
RTVSPropertyOp39
 70
     1
102
RTVSPropertyOp40
 70
     1
102
RTVSPropertyOp41
 70
     1
102
RTVSPropertyOp42
 70
     1
102
RTVSPropertyOp43
 70
     1
102
RTVSPropertyOp44
 70
     1
102
RTVSPropertyOp45
 70
     1
102
RTVSPropertyOp46
 70
     1
102
RTVSPropertyOp47
 70
     1
102
RTVSPropertyOp48
 70
     1
102
RTVSPropertyOp49
 70
     1
102
RTVSPropertyOp50
 70
     1
102
RTVSPropertyOp51
 70
     0
102
RTVSPropertyOp52
 70
     0
102
RTVSPropertyOp53
 70
     1
102
RTVSPropertyOp54
 70
     1
102
RTVSPropertyOp55
 70
     1
102
RTVSPropertyOp56
 70
     1
102
RTVSPropertyOp57
 70
     1
102
RTVSPropertyOp58
 70
     1
102
RTVSPropertyOp59
 70
     1
102
RTVSPropertyOp60
 70
     1
102
RTVSPropertyOp61
 70
     1
102
RTVSPropertyOp62
 70
     1
  0
XRECORD
  5
10A67
102
{ACAD_REACTORS
330
10A66
102
}
330
10A66
100
AcDbXrecord
280
     1
102
RTVSPost2010Prop28
280
     0
102
RTVSPost2010PropOp28
 70
     1
102
RTVSPost2010Prop29
280
     1
102
RTVSPost2010PropOp29
 70
     1
102
RTVSPost2010Prop30
280
     1
102
RTVSPost2010PropOp30
 70
     1
102
RTVSPost2010Prop31
280
     0
102
RTVSPost2010PropOp31
 70
     1
102
RTVSPost2010Prop32
280
     0
102
RTVSPost2010PropOp32
 70
     1
102
RTVSPost2010Prop33
280
     0
102
RTVSPost2010PropOp33
 70
     1
102
RTVSPost2010Prop34
280
     0
102
RTVSPost2010PropOp34
 70
     1
102
RTVSPost2010Prop35
280
     0
102
RTVSPost2010PropOp35
 70
     1
102
RTVSPost2010Prop36
280
     0
102
RTVSPost2010PropOp36
 70
     1
102
RTVSPost2010Prop37
 90
       50
102
RTVSPost2010PropOp37
 70
     1
102
RTVSPost2010Prop38
140
0.0
102
RTVSPost2010PropOp38
 70
     1
102
RTVSPost2010Prop39
140
1.0
102
RTVSPost2010PropOp39
 70
     1
102
RTVSPost2010Prop40
 90
        0
102
RTVSPost2010PropOp40
 70
     1
102
RTVSPost2010Prop41ColorIndex
 90
       18
102
RTVSPost2010Prop41ColorRGB
 90
        0
102
RTVSPost2010PropOp41
 70
     1
102
RTVSPost2010Prop42
 90
       50
102
RTVSPost2010PropOp42
 70
     1
102
RTVSPost2010Prop43
 90
        3
102
RTVSPost2010PropOp43
 70
     1
102
RTVSPost2010Prop44ColorIndex
 90
        5
102
RTVSPost2010Prop44ColorRGB
 90
      255
102
RTVSPost2010PropOp44
 70
     1
102
RTVSPost2010Prop45
280
     0
102
RTVSPost2010PropOp45
 70
     1
102
RTVSPost2010Prop46
 90
       50
102
RTVSPost2010PropOp46
 70
     1
102
RTVSPost2010Prop47
 90
       50
102
RTVSPost2010PropOp47
 70
     1
102
RTVSPost2010Prop48
 90
       50
102
RTVSPost2010PropOp48
 70
     1
102
RTVSPost2010Prop49
280
     0
102
RTVSPost2010PropOp49
 70
     1
102
RTVSPost2010Prop50
 90
       50
102
RTVSPost2010PropOp50
 70
     1
102
RTVSPost2010Prop51ColorIndex
 90
      256
102
RTVSPost2010Prop51ColorRGB
 90
-16777216
102
RTVSPost2010PropOp51
 70
     0
102
RTVSPost2010Prop52
140
1.0
102
RTVSPost2010PropOp52
 70
     0
102
RTVSPost2010Prop53
 90
        2
102
RTVSPost2010PropOp53
 70
     1
102
RTVSPost2010Prop54
  1
strokes_ogs.tif
102
RTVSPost2010PropOp54
 70
     1
102
RTVSPost2010Prop55
280
     0
102
RTVSPost2010PropOp55
 70
     1
102
RTVSPost2010Prop56
140
1.0
102
RTVSPost2010PropOp56
 70
     1
102
RTVSPost2010Prop57
140
1.0
102
RTVSPost2010PropOp57
 70
     1
102
RTVSPropertyOp0
 70
     1
102
RTVSPropertyOp1
 70
     1
102
RTVSPropertyOp2
 70
     1
102
RTVSPropertyOp3
 70
     1
102
RTVSPropertyOp4
 70
     1
102
RTVSPropertyOp5
 70
     1
102
RTVSPropertyOp6
 70
     1
102
RTVSPropertyOp7
 70
     1
102
RTVSPropertyOp8
 70
     1
102
RTVSPropertyOp9
 70
     1
102
RTVSPropertyOp10
 70
     1
102
RTVSPropertyOp11
 70
     1
102
RTVSPropertyOp12
 70
     1
102
RTVSPropertyOp13
 70
     1
102
RTVSPropertyOp14
 70
     1
102
RTVSPropertyOp15
 70
     1
102
RTVSPropertyOp16
 70
     1
102
RTVSPropertyOp17
 70
     1
102
RTVSPropertyOp18
 70
     1
102
RTVSPropertyOp19
 70
     1
102
RTVSPropertyOp20
 70
     1
102
RTVSPropertyOp21
 70
     1
102
RTVSPropertyOp22
 70
     1
102
RTVSPropertyOp23
 70
     1
102
RTVSPropertyOp24
 70
     1
102
RTVSPropertyOp25
 70
     1
102
RTVSPropertyOp26
 70
     1
102
RTVSPropertyOp27
 70
     1
102
RTVSPropertyOp28
 70
     1
102
RTVSPropertyOp29
 70
     1
102
RTVSPropertyOp30
 70
     1
102
RTVSPropertyOp31
 70
     1
102
RTVSPropertyOp32
 70
     1
102
RTVSPropertyOp33
 70
     1
102
RTVSPropertyOp34
 70
     1
102
RTVSPropertyOp35
 70
     1
102
RTVSPropertyOp36
 70
     1
102
RTVSPropertyOp37
 70
     1
102
RTVSPropertyOp38
 70
     1
102
RTVSPropertyOp39
 70
     1
102
RTVSPropertyOp40
 70
     1
102
RTVSPropertyOp41
 70
     1
102
RTVSPropertyOp42
 70
     1
102
RTVSPropertyOp43
 70
     1
102
RTVSPropertyOp44
 70
     1
102
RTVSPropertyOp45
 70
     1
102
RTVSPropertyOp46
 70
     1
102
RTVSPropertyOp47
 70
     1
102
RTVSPropertyOp48
 70
     1
102
RTVSPropertyOp49
 70
     1
102
RTVSPropertyOp50
 70
     1
102
RTVSPropertyOp51
 70
     0
102
RTVSPropertyOp52
 70
     0
102
RTVSPropertyOp53
 70
     1
102
RTVSPropertyOp54
 70
     1
102
RTVSPropertyOp55
 70
     1
102
RTVSPropertyOp56
 70
     1
102
RTVSPropertyOp57
 70
     1
102
RTVSPropertyOp58
 70
     1
102
RTVSPropertyOp59
 70
     1
102
RTVSPropertyOp60
 70
     1
102
RTVSPropertyOp61
 70
     1
102
RTVSPropertyOp62
 70
     1
  0
XRECORD
  5
10A81
102
{ACAD_REACTORS
330
10A80
102
}
330
10A80
100
AcDbXrecord
280
     1
102
RTVSPost2010Prop28
280
     0
102
RTVSPost2010PropOp28
 70
     1
102
RTVSPost2010Prop29
280
     1
102
RTVSPost2010PropOp29
 70
     1
102
RTVSPost2010Prop30
280
     1
102
RTVSPost2010PropOp30
 70
     1
102
RTVSPost2010Prop31
280
     0
102
RTVSPost2010PropOp31
 70
     1
102
RTVSPost2010Prop32
280
     0
102
RTVSPost2010PropOp32
 70
     1
102
RTVSPost2010Prop33
280
     0
102
RTVSPost2010PropOp33
 70
     1
102
RTVSPost2010Prop34
280
     0
102
RTVSPost2010PropOp34
 70
     1
102
RTVSPost2010Prop35
280
     0
102
RTVSPost2010PropOp35
 70
     1
102
RTVSPost2010Prop36
280
     0
102
RTVSPost2010PropOp36
 70
     1
102
RTVSPost2010Prop37
 90
       50
102
RTVSPost2010PropOp37
 70
     0
102
RTVSPost2010Prop38
140
0.0
102
RTVSPost2010PropOp38
 70
     0
102
RTVSPost2010Prop39
140
1.0
102
RTVSPost2010PropOp39
 70
     0
102
RTVSPost2010Prop40
 90
        0
102
RTVSPost2010PropOp40
 70
     0
102
RTVSPost2010Prop41ColorIndex
 90
       18
102
RTVSPost2010Prop41ColorRGB
 90
        0
102
RTVSPost2010PropOp41
 70
     0
102
RTVSPost2010Prop42
 90
       50
102
RTVSPost2010PropOp42
 70
     0
102
RTVSPost2010Prop43
 90
        3
102
RTVSPost2010PropOp43
 70
     0
102
RTVSPost2010Prop44ColorIndex
 90
        5
102
RTVSPost2010Prop44ColorRGB
 90
      255
102
RTVSPost2010PropOp44
 70
     0
102
RTVSPost2010Prop45
280
     0
102
RTVSPost2010PropOp45
 70
     1
102
RTVSPost2010Prop46
 90
       50
102
RTVSPost2010PropOp46
 70
     0
102
RTVSPost2010Prop47
 90
       50
102
RTVSPost2010PropOp47
 70
     0
102
RTVSPost2010Prop48
 90
       50
102
RTVSPost2010PropOp48
 70
     0
102
RTVSPost2010Prop49
280
     0
102
RTVSPost2010PropOp49
 70
     1
102
RTVSPost2010Prop50
 90
       50
102
RTVSPost2010PropOp50
 70
     0
102
RTVSPost2010Prop51ColorIndex
 90
      256
102
RTVSPost2010Prop51ColorRGB
 90
-16777216
102
RTVSPost2010PropOp51
 70
     0
102
RTVSPost2010Prop52
140
1.0
102
RTVSPost2010PropOp52
 70
     0
102
RTVSPost2010Prop53
 90
        2
102
RTVSPost2010PropOp53
 70
     0
102
RTVSPost2010Prop54
  1
strokes_ogs.tif
102
RTVSPost2010PropOp54
 70
     0
102
RTVSPost2010Prop55
280
     0
102
RTVSPost2010PropOp55
 70
     1
102
RTVSPost2010Prop56
140
1.0
102
RTVSPost2010PropOp56
 70
     0
102
RTVSPost2010Prop57
140
1.0
102
RTVSPost2010PropOp57
 70
     0
102
RTVSPropertyOp0
 70
     0
102
RTVSPropertyOp1
 70
     0
102
RTVSPropertyOp2
 70
     0
102
RTVSPropertyOp3
 70
     0
102
RTVSPropertyOp4
 70
     0
102
RTVSPropertyOp5
 70
     0
102
RTVSPropertyOp6
 70
     0
102
RTVSPropertyOp7
 70
     0
102
RTVSPropertyOp8
 70
     0
102
RTVSPropertyOp9
 70
     0
102
RTVSPropertyOp10
 70
     0
102
RTVSPropertyOp11
 70
     0
102
RTVSPropertyOp12
 70
     0
102
RTVSPropertyOp13
 70
     0
102
RTVSPropertyOp14
 70
     2
102
RTVSPropertyOp15
 70
     0
102
RTVSPropertyOp16
 70
     0
102
RTVSPropertyOp17
 70
     0
102
RTVSPropertyOp18
 70
     0
102
RTVSPropertyOp19
 70
     0
102
RTVSPropertyOp20
 70
     0
102
RTVSPropertyOp21
 70
     0
102
RTVSPropertyOp22
 70
     0
102
RTVSPropertyOp23
 70
     0
102
RTVSPropertyOp24
 70
     0
102
RTVSPropertyOp25
 70
     0
102
RTVSPropertyOp26
 70
     0
102
RTVSPropertyOp27
 70
     0
102
RTVSPropertyOp28
 70
     1
102
RTVSPropertyOp29
 70
     1
102
RTVSPropertyOp30
 70
     1
102
RTVSPropertyOp31
 70
     1
102
RTVSPropertyOp32
 70
     1
102
RTVSPropertyOp33
 70
     1
102
RTVSPropertyOp34
 70
     1
102
RTVSPropertyOp35
 70
     1
102
RTVSPropertyOp36
 70
     1
102
RTVSPropertyOp37
 70
     0
102
RTVSPropertyOp38
 70
     0
102
RTVSPropertyOp39
 70
     0
102
RTVSPropertyOp40
 70
     0
102
RTVSPropertyOp41
 70
     0
102
RTVSPropertyOp42
 70
     0
102
RTVSPropertyOp43
 70
     0
102
RTVSPropertyOp44
 70
     0
102
RTVSPropertyOp45
 70
     1
102
RTVSPropertyOp46
 70
     0
102
RTVSPropertyOp47
 70
     0
102
RTVSPropertyOp48
 70
     0
102
RTVSPropertyOp49
 70
     1
102
RTVSPropertyOp50
 70
     0
102
RTVSPropertyOp51
 70
     0
102
RTVSPropertyOp52
 70
     0
102
RTVSPropertyOp53
 70
     0
102
RTVSPropertyOp54
 70
     0
102
RTVSPropertyOp55
 70
     1
102
RTVSPropertyOp56
 70
     0
102
RTVSPropertyOp57
 70
     0
102
RTVSPropertyOp58
 70
     0
102
RTVSPropertyOp59
 70
     0
102
RTVSPropertyOp60
 70
     0
102
RTVSPropertyOp61
 70
     0
102
RTVSPropertyOp62
 70
     0
  0
XRECORD
  5
10A6F
102
{ACAD_REACTORS
330
10A6E
102
}
330
10A6E
100
AcDbXrecord
280
     1
102
RTVSPost2010Prop28
280
     0
102
RTVSPost2010PropOp28
 70
     1
102
RTVSPost2010Prop29
280
     1
102
RTVSPost2010PropOp29
 70
     1
102
RTVSPost2010Prop30
280
     1
102
RTVSPost2010PropOp30
 70
     1
102
RTVSPost2010Prop31
280
     0
102
RTVSPost2010PropOp31
 70
     1
102
RTVSPost2010Prop32
280
     0
102
RTVSPost2010PropOp32
 70
     1
102
RTVSPost2010Prop33
280
     0
102
RTVSPost2010PropOp33
 70
     1
102
RTVSPost2010Prop34
280
     0
102
RTVSPost2010PropOp34
 70
     1
102
RTVSPost2010Prop35
280
     0
102
RTVSPost2010PropOp35
 70
     1
102
RTVSPost2010Prop36
280
     0
102
RTVSPost2010PropOp36
 70
     1
102
RTVSPost2010Prop37
 90
       50
102
RTVSPost2010PropOp37
 70
     1
102
RTVSPost2010Prop38
140
0.0
102
RTVSPost2010PropOp38
 70
     1
102
RTVSPost2010Prop39
140
1.0
102
RTVSPost2010PropOp39
 70
     1
102
RTVSPost2010Prop40
 90
        0
102
RTVSPost2010PropOp40
 70
     1
102
RTVSPost2010Prop41ColorIndex
 90
       18
102
RTVSPost2010Prop41ColorRGB
 90
        0
102
RTVSPost2010PropOp41
 70
     1
102
RTVSPost2010Prop42
 90
       50
102
RTVSPost2010PropOp42
 70
     1
102
RTVSPost2010Prop43
 90
        3
102
RTVSPost2010PropOp43
 70
     1
102
RTVSPost2010Prop44ColorIndex
 90
        5
102
RTVSPost2010Prop44ColorRGB
 90
      255
102
RTVSPost2010PropOp44
 70
     1
102
RTVSPost2010Prop45
280
     0
102
RTVSPost2010PropOp45
 70
     1
102
RTVSPost2010Prop46
 90
       50
102
RTVSPost2010PropOp46
 70
     1
102
RTVSPost2010Prop47
 90
       50
102
RTVSPost2010PropOp47
 70
     1
102
RTVSPost2010Prop48
 90
       50
102
RTVSPost2010PropOp48
 70
     1
102
RTVSPost2010Prop49
280
     0
102
RTVSPost2010PropOp49
 70
     1
102
RTVSPost2010Prop50
 90
       50
102
RTVSPost2010PropOp50
 70
     1
102
RTVSPost2010Prop51ColorIndex
 90
      256
102
RTVSPost2010Prop51ColorRGB
 90
-16777216
102
RTVSPost2010PropOp51
 70
     0
102
RTVSPost2010Prop52
140
1.0
102
RTVSPost2010PropOp52
 70
     0
102
RTVSPost2010Prop53
 90
        2
102
RTVSPost2010PropOp53
 70
     1
102
RTVSPost2010Prop54
  1
strokes_ogs.tif
102
RTVSPost2010PropOp54
 70
     1
102
RTVSPost2010Prop55
280
     0
102
RTVSPost2010PropOp55
 70
     1
102
RTVSPost2010Prop56
140
1.0
102
RTVSPost2010PropOp56
 70
     1
102
RTVSPost2010Prop57
140
1.0
102
RTVSPost2010PropOp57
 70
     1
102
RTVSPropertyOp0
 70
     1
102
RTVSPropertyOp1
 70
     1
102
RTVSPropertyOp2
 70
     1
102
RTVSPropertyOp3
 70
     1
102
RTVSPropertyOp4
 70
     1
102
RTVSPropertyOp5
 70
     1
102
RTVSPropertyOp6
 70
     1
102
RTVSPropertyOp7
 70
     1
102
RTVSPropertyOp8
 70
     1
102
RTVSPropertyOp9
 70
     1
102
RTVSPropertyOp10
 70
     1
102
RTVSPropertyOp11
 70
     1
102
RTVSPropertyOp12
 70
     1
102
RTVSPropertyOp13
 70
     1
102
RTVSPropertyOp14
 70
     1
102
RTVSPropertyOp15
 70
     1
102
RTVSPropertyOp16
 70
     1
102
RTVSPropertyOp17
 70
     1
102
RTVSPropertyOp18
 70
     1
102
RTVSPropertyOp19
 70
     1
102
RTVSPropertyOp20
 70
     1
102
RTVSPropertyOp21
 70
     1
102
RTVSPropertyOp22
 70
     1
102
RTVSPropertyOp23
 70
     1
102
RTVSPropertyOp24
 70
     1
102
RTVSPropertyOp25
 70
     1
102
RTVSPropertyOp26
 70
     1
102
RTVSPropertyOp27
 70
     1
102
RTVSPropertyOp28
 70
     1
102
RTVSPropertyOp29
 70
     1
102
RTVSPropertyOp30
 70
     1
102
RTVSPropertyOp31
 70
     1
102
RTVSPropertyOp32
 70
     1
102
RTVSPropertyOp33
 70
     1
102
RTVSPropertyOp34
 70
     1
102
RTVSPropertyOp35
 70
     1
102
RTVSPropertyOp36
 70
     1
102
RTVSPropertyOp37
 70
     1
102
RTVSPropertyOp38
 70
     1
102
RTVSPropertyOp39
 70
     1
102
RTVSPropertyOp40
 70
     1
102
RTVSPropertyOp41
 70
     1
102
RTVSPropertyOp42
 70
     1
102
RTVSPropertyOp43
 70
     1
102
RTVSPropertyOp44
 70
     1
102
RTVSPropertyOp45
 70
     1
102
RTVSPropertyOp46
 70
     1
102
RTVSPropertyOp47
 70
     1
102
RTVSPropertyOp48
 70
     1
102
RTVSPropertyOp49
 70
     1
102
RTVSPropertyOp50
 70
     1
102
RTVSPropertyOp51
 70
     0
102
RTVSPropertyOp52
 70
     0
102
RTVSPropertyOp53
 70
     1
102
RTVSPropertyOp54
 70
     1
102
RTVSPropertyOp55
 70
     1
102
RTVSPropertyOp56
 70
     1
102
RTVSPropertyOp57
 70
     1
102
RTVSPropertyOp58
 70
     1
102
RTVSPropertyOp59
 70
     1
102
RTVSPropertyOp60
 70
     1
102
RTVSPropertyOp61
 70
     1
102
RTVSPropertyOp62
 70
     1
  0
XRECORD
  5
10A53
102
{ACAD_REACTORS
330
10A52
102
}
330
10A52
100
AcDbXrecord
280
     1
102
RTVSPost2010Prop28
280
     0
102
RTVSPost2010PropOp28
 70
     1
102
RTVSPost2010Prop29
280
     1
102
RTVSPost2010PropOp29
 70
     1
102
RTVSPost2010Prop30
280
     1
102
RTVSPost2010PropOp30
 70
     1
102
RTVSPost2010Prop31
280
     0
102
RTVSPost2010PropOp31
 70
     1
102
RTVSPost2010Prop32
280
     0
102
RTVSPost2010PropOp32
 70
     1
102
RTVSPost2010Prop33
280
     0
102
RTVSPost2010PropOp33
 70
     1
102
RTVSPost2010Prop34
280
     0
102
RTVSPost2010PropOp34
 70
     1
102
RTVSPost2010Prop35
280
     0
102
RTVSPost2010PropOp35
 70
     1
102
RTVSPost2010Prop36
280
     0
102
RTVSPost2010PropOp36
 70
     1
102
RTVSPost2010Prop37
 90
       50
102
RTVSPost2010PropOp37
 70
     1
102
RTVSPost2010Prop38
140
0.0
102
RTVSPost2010PropOp38
 70
     1
102
RTVSPost2010Prop39
140
1.0
102
RTVSPost2010PropOp39
 70
     1
102
RTVSPost2010Prop40
 90
        0
102
RTVSPost2010PropOp40
 70
     1
102
RTVSPost2010Prop41ColorIndex
 90
       18
102
RTVSPost2010Prop41ColorRGB
 90
        0
102
RTVSPost2010PropOp41
 70
     1
102
RTVSPost2010Prop42
 90
       50
102
RTVSPost2010PropOp42
 70
     1
102
RTVSPost2010Prop43
 90
        3
102
RTVSPost2010PropOp43
 70
     1
102
RTVSPost2010Prop44ColorIndex
 90
        5
102
RTVSPost2010Prop44ColorRGB
 90
      255
102
RTVSPost2010PropOp44
 70
     1
102
RTVSPost2010Prop45
280
     0
102
RTVSPost2010PropOp45
 70
     1
102
RTVSPost2010Prop46
 90
       50
102
RTVSPost2010PropOp46
 70
     1
102
RTVSPost2010Prop47
 90
       50
102
RTVSPost2010PropOp47
 70
     1
102
RTVSPost2010Prop48
 90
       50
102
RTVSPost2010PropOp48
 70
     1
102
RTVSPost2010Prop49
280
     0
102
RTVSPost2010PropOp49
 70
     1
102
RTVSPost2010Prop50
 90
       50
102
RTVSPost2010PropOp50
 70
     1
102
RTVSPost2010Prop51ColorIndex
 90
      256
102
RTVSPost2010Prop51ColorRGB
 90
-16777216
102
RTVSPost2010PropOp51
 70
     0
102
RTVSPost2010Prop52
140
1.0
102
RTVSPost2010PropOp52
 70
     0
102
RTVSPost2010Prop53
 90
        2
102
RTVSPost2010PropOp53
 70
     1
102
RTVSPost2010Prop54
  1
strokes_ogs.tif
102
RTVSPost2010PropOp54
 70
     1
102
RTVSPost2010Prop55
280
     0
102
RTVSPost2010PropOp55
 70
     1
102
RTVSPost2010Prop56
140
1.0
102
RTVSPost2010PropOp56
 70
     1
102
RTVSPost2010Prop57
140
1.0
102
RTVSPost2010PropOp57
 70
     1
102
RTVSPropertyOp0
 70
     1
102
RTVSPropertyOp1
 70
     1
102
RTVSPropertyOp2
 70
     1
102
RTVSPropertyOp3
 70
     1
102
RTVSPropertyOp4
 70
     1
102
RTVSPropertyOp5
 70
     1
102
RTVSPropertyOp6
 70
     1
102
RTVSPropertyOp7
 70
     1
102
RTVSPropertyOp8
 70
     1
102
RTVSPropertyOp9
 70
     1
102
RTVSPropertyOp10
 70
     1
102
RTVSPropertyOp11
 70
     1
102
RTVSPropertyOp12
 70
     1
102
RTVSPropertyOp13
 70
     1
102
RTVSPropertyOp14
 70
     1
102
RTVSPropertyOp15
 70
     1
102
RTVSPropertyOp16
 70
     1
102
RTVSPropertyOp17
 70
     1
102
RTVSPropertyOp18
 70
     1
102
RTVSPropertyOp19
 70
     1
102
RTVSPropertyOp20
 70
     1
102
RTVSPropertyOp21
 70
     1
102
RTVSPropertyOp22
 70
     1
102
RTVSPropertyOp23
 70
     1
102
RTVSPropertyOp24
 70
     1
102
RTVSPropertyOp25
 70
     1
102
RTVSPropertyOp26
 70
     1
102
RTVSPropertyOp27
 70
     1
102
RTVSPropertyOp28
 70
     1
102
RTVSPropertyOp29
 70
     1
102
RTVSPropertyOp30
 70
     1
102
RTVSPropertyOp31
 70
     1
102
RTVSPropertyOp32
 70
     1
102
RTVSPropertyOp33
 70
     1
102
RTVSPropertyOp34
 70
     1
102
RTVSPropertyOp35
 70
     1
102
RTVSPropertyOp36
 70
     1
102
RTVSPropertyOp37
 70
     1
102
RTVSPropertyOp38
 70
     1
102
RTVSPropertyOp39
 70
     1
102
RTVSPropertyOp40
 70
     1
102
RTVSPropertyOp41
 70
     1
102
RTVSPropertyOp42
 70
     1
102
RTVSPropertyOp43
 70
     1
102
RTVSPropertyOp44
 70
     1
102
RTVSPropertyOp45
 70
     1
102
RTVSPropertyOp46
 70
     1
102
RTVSPropertyOp47
 70
     1
102
RTVSPropertyOp48
 70
     1
102
RTVSPropertyOp49
 70
     1
102
RTVSPropertyOp50
 70
     1
102
RTVSPropertyOp51
 70
     0
102
RTVSPropertyOp52
 70
     0
102
RTVSPropertyOp53
 70
     1
102
RTVSPropertyOp54
 70
     1
102
RTVSPropertyOp55
 70
     1
102
RTVSPropertyOp56
 70
     1
102
RTVSPropertyOp57
 70
     1
102
RTVSPropertyOp58
 70
     1
102
RTVSPropertyOp59
 70
     1
102
RTVSPropertyOp60
 70
     1
102
RTVSPropertyOp61
 70
     1
102
RTVSPropertyOp62
 70
     1
  0
XRECORD
  5
10A55
102
{ACAD_REACTORS
330
10A54
102
}
330
10A54
100
AcDbXrecord
280
     1
102
RTVSPost2010Prop28
280
     0
102
RTVSPost2010PropOp28
 70
     1
102
RTVSPost2010Prop29
280
     1
102
RTVSPost2010PropOp29
 70
     1
102
RTVSPost2010Prop30
280
     1
102
RTVSPost2010PropOp30
 70
     1
102
RTVSPost2010Prop31
280
     0
102
RTVSPost2010PropOp31
 70
     1
102
RTVSPost2010Prop32
280
     0
102
RTVSPost2010PropOp32
 70
     1
102
RTVSPost2010Prop33
280
     0
102
RTVSPost2010PropOp33
 70
     1
102
RTVSPost2010Prop34
280
     0
102
RTVSPost2010PropOp34
 70
     1
102
RTVSPost2010Prop35
280
     0
102
RTVSPost2010PropOp35
 70
     1
102
RTVSPost2010Prop36
280
     0
102
RTVSPost2010PropOp36
 70
     1
102
RTVSPost2010Prop37
 90
       50
102
RTVSPost2010PropOp37
 70
     1
102
RTVSPost2010Prop38
140
0.0
102
RTVSPost2010PropOp38
 70
     1
102
RTVSPost2010Prop39
140
1.0
102
RTVSPost2010PropOp39
 70
     1
102
RTVSPost2010Prop40
 90
        0
102
RTVSPost2010PropOp40
 70
     1
102
RTVSPost2010Prop41ColorIndex
 90
       18
102
RTVSPost2010Prop41ColorRGB
 90
        0
102
RTVSPost2010PropOp41
 70
     1
102
RTVSPost2010Prop42
 90
       50
102
RTVSPost2010PropOp42
 70
     1
102
RTVSPost2010Prop43
 90
        3
102
RTVSPost2010PropOp43
 70
     1
102
RTVSPost2010Prop44ColorIndex
 90
        5
102
RTVSPost2010Prop44ColorRGB
 90
      255
102
RTVSPost2010PropOp44
 70
     1
102
RTVSPost2010Prop45
280
     0
102
RTVSPost2010PropOp45
 70
     1
102
RTVSPost2010Prop46
 90
       50
102
RTVSPost2010PropOp46
 70
     1
102
RTVSPost2010Prop47
 90
       50
102
RTVSPost2010PropOp47
 70
     1
102
RTVSPost2010Prop48
 90
       50
102
RTVSPost2010PropOp48
 70
     1
102
RTVSPost2010Prop49
280
     0
102
RTVSPost2010PropOp49
 70
     1
102
RTVSPost2010Prop50
 90
       50
102
RTVSPost2010PropOp50
 70
     1
102
RTVSPost2010Prop51ColorIndex
 90
      256
102
RTVSPost2010Prop51ColorRGB
 90
-16777216
102
RTVSPost2010PropOp51
 70
     0
102
RTVSPost2010Prop52
140
1.0
102
RTVSPost2010PropOp52
 70
     0
102
RTVSPost2010Prop53
 90
        2
102
RTVSPost2010PropOp53
 70
     1
102
RTVSPost2010Prop54
  1
strokes_ogs.tif
102
RTVSPost2010PropOp54
 70
     1
102
RTVSPost2010Prop55
280
     0
102
RTVSPost2010PropOp55
 70
     1
102
RTVSPost2010Prop56
140
1.0
102
RTVSPost2010PropOp56
 70
     1
102
RTVSPost2010Prop57
140
1.0
102
RTVSPost2010PropOp57
 70
     1
102
RTVSPropertyOp0
 70
     1
102
RTVSPropertyOp1
 70
     1
102
RTVSPropertyOp2
 70
     1
102
RTVSPropertyOp3
 70
     1
102
RTVSPropertyOp4
 70
     1
102
RTVSPropertyOp5
 70
     1
102
RTVSPropertyOp6
 70
     1
102
RTVSPropertyOp7
 70
     1
102
RTVSPropertyOp8
 70
     1
102
RTVSPropertyOp9
 70
     1
102
RTVSPropertyOp10
 70
     1
102
RTVSPropertyOp11
 70
     1
102
RTVSPropertyOp12
 70
     1
102
RTVSPropertyOp13
 70
     1
102
RTVSPropertyOp14
 70
     1
102
RTVSPropertyOp15
 70
     1
102
RTVSPropertyOp16
 70
     1
102
RTVSPropertyOp17
 70
     1
102
RTVSPropertyOp18
 70
     1
102
RTVSPropertyOp19
 70
     1
102
RTVSPropertyOp20
 70
     1
102
RTVSPropertyOp21
 70
     1
102
RTVSPropertyOp22
 70
     1
102
RTVSPropertyOp23
 70
     1
102
RTVSPropertyOp24
 70
     1
102
RTVSPropertyOp25
 70
     1
102
RTVSPropertyOp26
 70
     1
102
RTVSPropertyOp27
 70
     1
102
RTVSPropertyOp28
 70
     1
102
RTVSPropertyOp29
 70
     1
102
RTVSPropertyOp30
 70
     1
102
RTVSPropertyOp31
 70
     1
102
RTVSPropertyOp32
 70
     1
102
RTVSPropertyOp33
 70
     1
102
RTVSPropertyOp34
 70
     1
102
RTVSPropertyOp35
 70
     1
102
RTVSPropertyOp36
 70
     1
102
RTVSPropertyOp37
 70
     1
102
RTVSPropertyOp38
 70
     1
102
RTVSPropertyOp39
 70
     1
102
RTVSPropertyOp40
 70
     1
102
RTVSPropertyOp41
 70
     1
102
RTVSPropertyOp42
 70
     1
102
RTVSPropertyOp43
 70
     1
102
RTVSPropertyOp44
 70
     1
102
RTVSPropertyOp45
 70
     1
102
RTVSPropertyOp46
 70
     1
102
RTVSPropertyOp47
 70
     1
102
RTVSPropertyOp48
 70
     1
102
RTVSPropertyOp49
 70
     1
102
RTVSPropertyOp50
 70
     1
102
RTVSPropertyOp51
 70
     0
102
RTVSPropertyOp52
 70
     0
102
RTVSPropertyOp53
 70
     1
102
RTVSPropertyOp54
 70
     1
102
RTVSPropertyOp55
 70
     1
102
RTVSPropertyOp56
 70
     1
102
RTVSPropertyOp57
 70
     1
102
RTVSPropertyOp58
 70
     1
102
RTVSPropertyOp59
 70
     1
102
RTVSPropertyOp60
 70
     1
102
RTVSPropertyOp61
 70
     1
102
RTVSPropertyOp62
 70
     1
  0
XRECORD
  5
10A57
102
{ACAD_REACTORS
330
10A56
102
}
330
10A56
100
AcDbXrecord
280
     1
102
RTVSPost2010Prop28
280
     0
102
RTVSPost2010PropOp28
 70
     1
102
RTVSPost2010Prop29
280
     1
102
RTVSPost2010PropOp29
 70
     1
102
RTVSPost2010Prop30
280
     1
102
RTVSPost2010PropOp30
 70
     1
102
RTVSPost2010Prop31
280
     0
102
RTVSPost2010PropOp31
 70
     1
102
RTVSPost2010Prop32
280
     0
102
RTVSPost2010PropOp32
 70
     1
102
RTVSPost2010Prop33
280
     0
102
RTVSPost2010PropOp33
 70
     1
102
RTVSPost2010Prop34
280
     0
102
RTVSPost2010PropOp34
 70
     1
102
RTVSPost2010Prop35
280
     0
102
RTVSPost2010PropOp35
 70
     1
102
RTVSPost2010Prop36
280
     0
102
RTVSPost2010PropOp36
 70
     1
102
RTVSPost2010Prop37
 90
       50
102
RTVSPost2010PropOp37
 70
     1
102
RTVSPost2010Prop38
140
0.0
102
RTVSPost2010PropOp38
 70
     1
102
RTVSPost2010Prop39
140
1.0
102
RTVSPost2010PropOp39
 70
     1
102
RTVSPost2010Prop40
 90
        0
102
RTVSPost2010PropOp40
 70
     1
102
RTVSPost2010Prop41ColorIndex
 90
       18
102
RTVSPost2010Prop41ColorRGB
 90
        0
102
RTVSPost2010PropOp41
 70
     1
102
RTVSPost2010Prop42
 90
       50
102
RTVSPost2010PropOp42
 70
     1
102
RTVSPost2010Prop43
 90
        3
102
RTVSPost2010PropOp43
 70
     1
102
RTVSPost2010Prop44ColorIndex
 90
        5
102
RTVSPost2010Prop44ColorRGB
 90
      255
102
RTVSPost2010PropOp44
 70
     1
102
RTVSPost2010Prop45
280
     0
102
RTVSPost2010PropOp45
 70
     1
102
RTVSPost2010Prop46
 90
       50
102
RTVSPost2010PropOp46
 70
     1
102
RTVSPost2010Prop47
 90
       50
102
RTVSPost2010PropOp47
 70
     1
102
RTVSPost2010Prop48
 90
       50
102
RTVSPost2010PropOp48
 70
     1
102
RTVSPost2010Prop49
280
     0
102
RTVSPost2010PropOp49
 70
     1
102
RTVSPost2010Prop50
 90
       50
102
RTVSPost2010PropOp50
 70
     1
102
RTVSPost2010Prop51ColorIndex
 90
      256
102
RTVSPost2010Prop51ColorRGB
 90
-16777216
102
RTVSPost2010PropOp51
 70
     0
102
RTVSPost2010Prop52
140
1.0
102
RTVSPost2010PropOp52
 70
     0
102
RTVSPost2010Prop53
 90
        2
102
RTVSPost2010PropOp53
 70
     1
102
RTVSPost2010Prop54
  1
strokes_ogs.tif
102
RTVSPost2010PropOp54
 70
     1
102
RTVSPost2010Prop55
280
     0
102
RTVSPost2010PropOp55
 70
     1
102
RTVSPost2010Prop56
140
1.0
102
RTVSPost2010PropOp56
 70
     1
102
RTVSPost2010Prop57
140
1.0
102
RTVSPost2010PropOp57
 70
     1
102
RTVSPropertyOp0
 70
     1
102
RTVSPropertyOp1
 70
     1
102
RTVSPropertyOp2
 70
     1
102
RTVSPropertyOp3
 70
     1
102
RTVSPropertyOp4
 70
     1
102
RTVSPropertyOp5
 70
     1
102
RTVSPropertyOp6
 70
     1
102
RTVSPropertyOp7
 70
     1
102
RTVSPropertyOp8
 70
     1
102
RTVSPropertyOp9
 70
     1
102
RTVSPropertyOp10
 70
     1
102
RTVSPropertyOp11
 70
     1
102
RTVSPropertyOp12
 70
     1
102
RTVSPropertyOp13
 70
     1
102
RTVSPropertyOp14
 70
     1
102
RTVSPropertyOp15
 70
     1
102
RTVSPropertyOp16
 70
     1
102
RTVSPropertyOp17
 70
     1
102
RTVSPropertyOp18
 70
     1
102
RTVSPropertyOp19
 70
     1
102
RTVSPropertyOp20
 70
     1
102
RTVSPropertyOp21
 70
     1
102
RTVSPropertyOp22
 70
     1
102
RTVSPropertyOp23
 70
     1
102
RTVSPropertyOp24
 70
     1
102
RTVSPropertyOp25
 70
     1
102
RTVSPropertyOp26
 70
     1
102
RTVSPropertyOp27
 70
     1
102
RTVSPropertyOp28
 70
     1
102
RTVSPropertyOp29
 70
     1
102
RTVSPropertyOp30
 70
     1
102
RTVSPropertyOp31
 70
     1
102
RTVSPropertyOp32
 70
     1
102
RTVSPropertyOp33
 70
     1
102
RTVSPropertyOp34
 70
     1
102
RTVSPropertyOp35
 70
     1
102
RTVSPropertyOp36
 70
     1
102
RTVSPropertyOp37
 70
     1
102
RTVSPropertyOp38
 70
     1
102
RTVSPropertyOp39
 70
     1
102
RTVSPropertyOp40
 70
     1
102
RTVSPropertyOp41
 70
     1
102
RTVSPropertyOp42
 70
     1
102
RTVSPropertyOp43
 70
     1
102
RTVSPropertyOp44
 70
     1
102
RTVSPropertyOp45
 70
     1
102
RTVSPropertyOp46
 70
     1
102
RTVSPropertyOp47
 70
     1
102
RTVSPropertyOp48
 70
     1
102
RTVSPropertyOp49
 70
     1
102
RTVSPropertyOp50
 70
     1
102
RTVSPropertyOp51
 70
     0
102
RTVSPropertyOp52
 70
     0
102
RTVSPropertyOp53
 70
     1
102
RTVSPropertyOp54
 70
     1
102
RTVSPropertyOp55
 70
     1
102
RTVSPropertyOp56
 70
     1
102
RTVSPropertyOp57
 70
     1
102
RTVSPropertyOp58
 70
     1
102
RTVSPropertyOp59
 70
     1
102
RTVSPropertyOp60
 70
     1
102
RTVSPropertyOp61
 70
     1
102
RTVSPropertyOp62
 70
     1
  0
XRECORD
  5
10A59
102
{ACAD_REACTORS
330
10A58
102
}
330
10A58
100
AcDbXrecord
280
     1
102
RTVSPost2010Prop28
280
     0
102
RTVSPost2010PropOp28
 70
     1
102
RTVSPost2010Prop29
280
     1
102
RTVSPost2010PropOp29
 70
     1
102
RTVSPost2010Prop30
280
     1
102
RTVSPost2010PropOp30
 70
     1
102
RTVSPost2010Prop31
280
     0
102
RTVSPost2010PropOp31
 70
     1
102
RTVSPost2010Prop32
280
     0
102
RTVSPost2010PropOp32
 70
     1
102
RTVSPost2010Prop33
280
     0
102
RTVSPost2010PropOp33
 70
     1
102
RTVSPost2010Prop34
280
     0
102
RTVSPost2010PropOp34
 70
     1
102
RTVSPost2010Prop35
280
     0
102
RTVSPost2010PropOp35
 70
     1
102
RTVSPost2010Prop36
280
     0
102
RTVSPost2010PropOp36
 70
     1
102
RTVSPost2010Prop37
 90
       50
102
RTVSPost2010PropOp37
 70
     1
102
RTVSPost2010Prop38
140
0.0
102
RTVSPost2010PropOp38
 70
     1
102
RTVSPost2010Prop39
140
1.0
102
RTVSPost2010PropOp39
 70
     1
102
RTVSPost2010Prop40
 90
        0
102
RTVSPost2010PropOp40
 70
     1
102
RTVSPost2010Prop41ColorIndex
 90
       18
102
RTVSPost2010Prop41ColorRGB
 90
        0
102
RTVSPost2010PropOp41
 70
     1
102
RTVSPost2010Prop42
 90
       50
102
RTVSPost2010PropOp42
 70
     1
102
RTVSPost2010Prop43
 90
        3
102
RTVSPost2010PropOp43
 70
     1
102
RTVSPost2010Prop44ColorIndex
 90
        5
102
RTVSPost2010Prop44ColorRGB
 90
      255
102
RTVSPost2010PropOp44
 70
     1
102
RTVSPost2010Prop45
280
     0
102
RTVSPost2010PropOp45
 70
     1
102
RTVSPost2010Prop46
 90
       50
102
RTVSPost2010PropOp46
 70
     1
102
RTVSPost2010Prop47
 90
       50
102
RTVSPost2010PropOp47
 70
     1
102
RTVSPost2010Prop48
 90
       50
102
RTVSPost2010PropOp48
 70
     1
102
RTVSPost2010Prop49
280
     0
102
RTVSPost2010PropOp49
 70
     1
102
RTVSPost2010Prop50
 90
       50
102
RTVSPost2010PropOp50
 70
     1
102
RTVSPost2010Prop51ColorIndex
 90
      256
102
RTVSPost2010Prop51ColorRGB
 90
-16777216
102
RTVSPost2010PropOp51
 70
     0
102
RTVSPost2010Prop52
140
1.0
102
RTVSPost2010PropOp52
 70
     0
102
RTVSPost2010Prop53
 90
        2
102
RTVSPost2010PropOp53
 70
     1
102
RTVSPost2010Prop54
  1
strokes_ogs.tif
102
RTVSPost2010PropOp54
 70
     1
102
RTVSPost2010Prop55
280
     0
102
RTVSPost2010PropOp55
 70
     1
102
RTVSPost2010Prop56
140
1.0
102
RTVSPost2010PropOp56
 70
     1
102
RTVSPost2010Prop57
140
1.0
102
RTVSPost2010PropOp57
 70
     1
102
RTVSPropertyOp0
 70
     1
102
RTVSPropertyOp1
 70
     1
102
RTVSPropertyOp2
 70
     1
102
RTVSPropertyOp3
 70
     1
102
RTVSPropertyOp4
 70
     1
102
RTVSPropertyOp5
 70
     1
102
RTVSPropertyOp6
 70
     1
102
RTVSPropertyOp7
 70
     1
102
RTVSPropertyOp8
 70
     1
102
RTVSPropertyOp9
 70
     1
102
RTVSPropertyOp10
 70
     1
102
RTVSPropertyOp11
 70
     1
102
RTVSPropertyOp12
 70
     1
102
RTVSPropertyOp13
 70
     1
102
RTVSPropertyOp14
 70
     1
102
RTVSPropertyOp15
 70
     1
102
RTVSPropertyOp16
 70
     1
102
RTVSPropertyOp17
 70
     1
102
RTVSPropertyOp18
 70
     1
102
RTVSPropertyOp19
 70
     1
102
RTVSPropertyOp20
 70
     1
102
RTVSPropertyOp21
 70
     1
102
RTVSPropertyOp22
 70
     1
102
RTVSPropertyOp23
 70
     1
102
RTVSPropertyOp24
 70
     1
102
RTVSPropertyOp25
 70
     1
102
RTVSPropertyOp26
 70
     1
102
RTVSPropertyOp27
 70
     1
102
RTVSPropertyOp28
 70
     1
102
RTVSPropertyOp29
 70
     1
102
RTVSPropertyOp30
 70
     1
102
RTVSPropertyOp31
 70
     1
102
RTVSPropertyOp32
 70
     1
102
RTVSPropertyOp33
 70
     1
102
RTVSPropertyOp34
 70
     1
102
RTVSPropertyOp35
 70
     1
102
RTVSPropertyOp36
 70
     1
102
RTVSPropertyOp37
 70
     1
102
RTVSPropertyOp38
 70
     1
102
RTVSPropertyOp39
 70
     1
102
RTVSPropertyOp40
 70
     1
102
RTVSPropertyOp41
 70
     1
102
RTVSPropertyOp42
 70
     1
102
RTVSPropertyOp43
 70
     1
102
RTVSPropertyOp44
 70
     1
102
RTVSPropertyOp45
 70
     1
102
RTVSPropertyOp46
 70
     1
102
RTVSPropertyOp47
 70
     1
102
RTVSPropertyOp48
 70
     1
102
RTVSPropertyOp49
 70
     1
102
RTVSPropertyOp50
 70
     1
102
RTVSPropertyOp51
 70
     0
102
RTVSPropertyOp52
 70
     0
102
RTVSPropertyOp53
 70
     1
102
RTVSPropertyOp54
 70
     1
102
RTVSPropertyOp55
 70
     1
102
RTVSPropertyOp56
 70
     1
102
RTVSPropertyOp57
 70
     1
102
RTVSPropertyOp58
 70
     1
102
RTVSPropertyOp59
 70
     1
102
RTVSPropertyOp60
 70
     1
102
RTVSPropertyOp61
 70
     1
102
RTVSPropertyOp62
 70
     1
  0
XRECORD
  5
10A61
102
{ACAD_REACTORS
330
10A60
102
}
330
10A60
100
AcDbXrecord
280
     1
102
RTVSPost2010Prop28
280
     0
102
RTVSPost2010PropOp28
 70
     1
102
RTVSPost2010Prop29
280
     1
102
RTVSPost2010PropOp29
 70
     1
102
RTVSPost2010Prop30
280
     1
102
RTVSPost2010PropOp30
 70
     1
102
RTVSPost2010Prop31
280
     0
102
RTVSPost2010PropOp31
 70
     1
102
RTVSPost2010Prop32
280
     0
102
RTVSPost2010PropOp32
 70
     1
102
RTVSPost2010Prop33
280
     0
102
RTVSPost2010PropOp33
 70
     1
102
RTVSPost2010Prop34
280
     0
102
RTVSPost2010PropOp34
 70
     1
102
RTVSPost2010Prop35
280
     0
102
RTVSPost2010PropOp35
 70
     1
102
RTVSPost2010Prop36
280
     0
102
RTVSPost2010PropOp36
 70
     1
102
RTVSPost2010Prop37
 90
       50
102
RTVSPost2010PropOp37
 70
     1
102
RTVSPost2010Prop38
140
0.0
102
RTVSPost2010PropOp38
 70
     1
102
RTVSPost2010Prop39
140
1.0
102
RTVSPost2010PropOp39
 70
     1
102
RTVSPost2010Prop40
 90
        0
102
RTVSPost2010PropOp40
 70
     1
102
RTVSPost2010Prop41ColorIndex
 90
       18
102
RTVSPost2010Prop41ColorRGB
 90
        0
102
RTVSPost2010PropOp41
 70
     1
102
RTVSPost2010Prop42
 90
       50
102
RTVSPost2010PropOp42
 70
     1
102
RTVSPost2010Prop43
 90
        3
102
RTVSPost2010PropOp43
 70
     1
102
RTVSPost2010Prop44ColorIndex
 90
        5
102
RTVSPost2010Prop44ColorRGB
 90
      255
102
RTVSPost2010PropOp44
 70
     1
102
RTVSPost2010Prop45
280
     0
102
RTVSPost2010PropOp45
 70
     1
102
RTVSPost2010Prop46
 90
       50
102
RTVSPost2010PropOp46
 70
     1
102
RTVSPost2010Prop47
 90
       50
102
RTVSPost2010PropOp47
 70
     1
102
RTVSPost2010Prop48
 90
       50
102
RTVSPost2010PropOp48
 70
     1
102
RTVSPost2010Prop49
280
     0
102
RTVSPost2010PropOp49
 70
     1
102
RTVSPost2010Prop50
 90
       50
102
RTVSPost2010PropOp50
 70
     1
102
RTVSPost2010Prop51ColorIndex
 90
      256
102
RTVSPost2010Prop51ColorRGB
 90
-16777216
102
RTVSPost2010PropOp51
 70
     0
102
RTVSPost2010Prop52
140
1.0
102
RTVSPost2010PropOp52
 70
     0
102
RTVSPost2010Prop53
 90
        2
102
RTVSPost2010PropOp53
 70
     1
102
RTVSPost2010Prop54
  1
strokes_ogs.tif
102
RTVSPost2010PropOp54
 70
     1
102
RTVSPost2010Prop55
280
     0
102
RTVSPost2010PropOp55
 70
     1
102
RTVSPost2010Prop56
140
1.0
102
RTVSPost2010PropOp56
 70
     1
102
RTVSPost2010Prop57
140
1.0
102
RTVSPost2010PropOp57
 70
     1
102
RTVSPropertyOp0
 70
     1
102
RTVSPropertyOp1
 70
     1
102
RTVSPropertyOp2
 70
     1
102
RTVSPropertyOp3
 70
     1
102
RTVSPropertyOp4
 70
     1
102
RTVSPropertyOp5
 70
     1
102
RTVSPropertyOp6
 70
     1
102
RTVSPropertyOp7
 70
     1
102
RTVSPropertyOp8
 70
     1
102
RTVSPropertyOp9
 70
     1
102
RTVSPropertyOp10
 70
     1
102
RTVSPropertyOp11
 70
     1
102
RTVSPropertyOp12
 70
     1
102
RTVSPropertyOp13
 70
     1
102
RTVSPropertyOp14
 70
     1
102
RTVSPropertyOp15
 70
     1
102
RTVSPropertyOp16
 70
     1
102
RTVSPropertyOp17
 70
     1
102
RTVSPropertyOp18
 70
     1
102
RTVSPropertyOp19
 70
     1
102
RTVSPropertyOp20
 70
     1
102
RTVSPropertyOp21
 70
     1
102
RTVSPropertyOp22
 70
     1
102
RTVSPropertyOp23
 70
     1
102
RTVSPropertyOp24
 70
     1
102
RTVSPropertyOp25
 70
     1
102
RTVSPropertyOp26
 70
     1
102
RTVSPropertyOp27
 70
     1
102
RTVSPropertyOp28
 70
     1
102
RTVSPropertyOp29
 70
     1
102
RTVSPropertyOp30
 70
     1
102
RTVSPropertyOp31
 70
     1
102
RTVSPropertyOp32
 70
     1
102
RTVSPropertyOp33
 70
     1
102
RTVSPropertyOp34
 70
     1
102
RTVSPropertyOp35
 70
     1
102
RTVSPropertyOp36
 70
     1
102
RTVSPropertyOp37
 70
     1
102
RTVSPropertyOp38
 70
     1
102
RTVSPropertyOp39
 70
     1
102
RTVSPropertyOp40
 70
     1
102
RTVSPropertyOp41
 70
     1
102
RTVSPropertyOp42
 70
     1
102
RTVSPropertyOp43
 70
     1
102
RTVSPropertyOp44
 70
     1
102
RTVSPropertyOp45
 70
     1
102
RTVSPropertyOp46
 70
     1
102
RTVSPropertyOp47
 70
     1
102
RTVSPropertyOp48
 70
     1
102
RTVSPropertyOp49
 70
     1
102
RTVSPropertyOp50
 70
     1
102
RTVSPropertyOp51
 70
     0
102
RTVSPropertyOp52
 70
     0
102
RTVSPropertyOp53
 70
     1
102
RTVSPropertyOp54
 70
     1
102
RTVSPropertyOp55
 70
     1
102
RTVSPropertyOp56
 70
     1
102
RTVSPropertyOp57
 70
     1
102
RTVSPropertyOp58
 70
     1
102
RTVSPropertyOp59
 70
     1
102
RTVSPropertyOp60
 70
     1
102
RTVSPropertyOp61
 70
     1
102
RTVSPropertyOp62
 70
     1
  0
XRECORD
  5
10A7D
102
{ACAD_REACTORS
330
10A7C
102
}
330
10A7C
100
AcDbXrecord
280
     1
102
RTVSPost2010Prop28
280
     0
102
RTVSPost2010PropOp28
 70
     1
102
RTVSPost2010Prop29
280
     1
102
RTVSPost2010PropOp29
 70
     1
102
RTVSPost2010Prop30
280
     1
102
RTVSPost2010PropOp30
 70
     1
102
RTVSPost2010Prop31
280
     0
102
RTVSPost2010PropOp31
 70
     1
102
RTVSPost2010Prop32
280
     0
102
RTVSPost2010PropOp32
 70
     1
102
RTVSPost2010Prop33
280
     0
102
RTVSPost2010PropOp33
 70
     1
102
RTVSPost2010Prop34
280
     0
102
RTVSPost2010PropOp34
 70
     1
102
RTVSPost2010Prop35
280
     0
102
RTVSPost2010PropOp35
 70
     1
102
RTVSPost2010Prop36
280
     0
102
RTVSPost2010PropOp36
 70
     1
102
RTVSPost2010Prop37
 90
       50
102
RTVSPost2010PropOp37
 70
     0
102
RTVSPost2010Prop38
140
0.0
102
RTVSPost2010PropOp38
 70
     0
102
RTVSPost2010Prop39
140
1.0
102
RTVSPost2010PropOp39
 70
     0
102
RTVSPost2010Prop40
 90
        0
102
RTVSPost2010PropOp40
 70
     0
102
RTVSPost2010Prop41ColorIndex
 90
       18
102
RTVSPost2010Prop41ColorRGB
 90
        0
102
RTVSPost2010PropOp41
 70
     0
102
RTVSPost2010Prop42
 90
       50
102
RTVSPost2010PropOp42
 70
     0
102
RTVSPost2010Prop43
 90
        3
102
RTVSPost2010PropOp43
 70
     0
102
RTVSPost2010Prop44ColorIndex
 90
        5
102
RTVSPost2010Prop44ColorRGB
 90
      255
102
RTVSPost2010PropOp44
 70
     0
102
RTVSPost2010Prop45
280
     0
102
RTVSPost2010PropOp45
 70
     1
102
RTVSPost2010Prop46
 90
       50
102
RTVSPost2010PropOp46
 70
     0
102
RTVSPost2010Prop47
 90
       50
102
RTVSPost2010PropOp47
 70
     0
102
RTVSPost2010Prop48
 90
       50
102
RTVSPost2010PropOp48
 70
     0
102
RTVSPost2010Prop49
280
     0
102
RTVSPost2010PropOp49
 70
     1
102
RTVSPost2010Prop50
 90
       50
102
RTVSPost2010PropOp50
 70
     0
102
RTVSPost2010Prop51ColorIndex
 90
      256
102
RTVSPost2010Prop51ColorRGB
 90
-16777216
102
RTVSPost2010PropOp51
 70
     0
102
RTVSPost2010Prop52
140
1.0
102
RTVSPost2010PropOp52
 70
     0
102
RTVSPost2010Prop53
 90
        2
102
RTVSPost2010PropOp53
 70
     0
102
RTVSPost2010Prop54
  1
strokes_ogs.tif
102
RTVSPost2010PropOp54
 70
     0
102
RTVSPost2010Prop55
280
     0
102
RTVSPost2010PropOp55
 70
     1
102
RTVSPost2010Prop56
140
1.0
102
RTVSPost2010PropOp56
 70
     0
102
RTVSPost2010Prop57
140
1.0
102
RTVSPost2010PropOp57
 70
     0
102
RTVSPropertyOp0
 70
     0
102
RTVSPropertyOp1
 70
     0
102
RTVSPropertyOp2
 70
     0
102
RTVSPropertyOp3
 70
     0
102
RTVSPropertyOp4
 70
     0
102
RTVSPropertyOp5
 70
     0
102
RTVSPropertyOp6
 70
     0
102
RTVSPropertyOp7
 70
     0
102
RTVSPropertyOp8
 70
     0
102
RTVSPropertyOp9
 70
     0
102
RTVSPropertyOp10
 70
     0
102
RTVSPropertyOp11
 70
     0
102
RTVSPropertyOp12
 70
     0
102
RTVSPropertyOp13
 70
     0
102
RTVSPropertyOp14
 70
     2
102
RTVSPropertyOp15
 70
     0
102
RTVSPropertyOp16
 70
     0
102
RTVSPropertyOp17
 70
     0
102
RTVSPropertyOp18
 70
     0
102
RTVSPropertyOp19
 70
     0
102
RTVSPropertyOp20
 70
     0
102
RTVSPropertyOp21
 70
     0
102
RTVSPropertyOp22
 70
     0
102
RTVSPropertyOp23
 70
     0
102
RTVSPropertyOp24
 70
     0
102
RTVSPropertyOp25
 70
     0
102
RTVSPropertyOp26
 70
     0
102
RTVSPropertyOp27
 70
     0
102
RTVSPropertyOp28
 70
     1
102
RTVSPropertyOp29
 70
     1
102
RTVSPropertyOp30
 70
     1
102
RTVSPropertyOp31
 70
     1
102
RTVSPropertyOp32
 70
     1
102
RTVSPropertyOp33
 70
     1
102
RTVSPropertyOp34
 70
     1
102
RTVSPropertyOp35
 70
     1
102
RTVSPropertyOp36
 70
     1
102
RTVSPropertyOp37
 70
     0
102
RTVSPropertyOp38
 70
     0
102
RTVSPropertyOp39
 70
     0
102
RTVSPropertyOp40
 70
     0
102
RTVSPropertyOp41
 70
     0
102
RTVSPropertyOp42
 70
     0
102
RTVSPropertyOp43
 70
     0
102
RTVSPropertyOp44
 70
     0
102
RTVSPropertyOp45
 70
     1
102
RTVSPropertyOp46
 70
     0
102
RTVSPropertyOp47
 70
     0
102
RTVSPropertyOp48
 70
     0
102
RTVSPropertyOp49
 70
     1
102
RTVSPropertyOp50
 70
     0
102
RTVSPropertyOp51
 70
     0
102
RTVSPropertyOp52
 70
     0
102
RTVSPropertyOp53
 70
     0
102
RTVSPropertyOp54
 70
     0
102
RTVSPropertyOp55
 70
     1
102
RTVSPropertyOp56
 70
     0
102
RTVSPropertyOp57
 70
     0
102
RTVSPropertyOp58
 70
     0
102
RTVSPropertyOp59
 70
     0
102
RTVSPropertyOp60
 70
     0
102
RTVSPropertyOp61
 70
     0
102
RTVSPropertyOp62
 70
     0
  0
XRECORD
  5
10A6D
102
{ACAD_REACTORS
330
10A6C
102
}
330
10A6C
100
AcDbXrecord
280
     1
102
RTVSPost2010Prop28
280
     0
102
RTVSPost2010PropOp28
 70
     1
102
RTVSPost2010Prop29
280
     1
102
RTVSPost2010PropOp29
 70
     1
102
RTVSPost2010Prop30
280
     1
102
RTVSPost2010PropOp30
 70
     1
102
RTVSPost2010Prop31
280
     0
102
RTVSPost2010PropOp31
 70
     1
102
RTVSPost2010Prop32
280
     0
102
RTVSPost2010PropOp32
 70
     1
102
RTVSPost2010Prop33
280
     0
102
RTVSPost2010PropOp33
 70
     1
102
RTVSPost2010Prop34
280
     0
102
RTVSPost2010PropOp34
 70
     1
102
RTVSPost2010Prop35
280
     0
102
RTVSPost2010PropOp35
 70
     1
102
RTVSPost2010Prop36
280
     0
102
RTVSPost2010PropOp36
 70
     1
102
RTVSPost2010Prop37
 90
       50
102
RTVSPost2010PropOp37
 70
     1
102
RTVSPost2010Prop38
140
0.0
102
RTVSPost2010PropOp38
 70
     1
102
RTVSPost2010Prop39
140
1.0
102
RTVSPost2010PropOp39
 70
     1
102
RTVSPost2010Prop40
 90
        0
102
RTVSPost2010PropOp40
 70
     1
102
RTVSPost2010Prop41ColorIndex
 90
       18
102
RTVSPost2010Prop41ColorRGB
 90
        0
102
RTVSPost2010PropOp41
 70
     1
102
RTVSPost2010Prop42
 90
       50
102
RTVSPost2010PropOp42
 70
     1
102
RTVSPost2010Prop43
 90
        3
102
RTVSPost2010PropOp43
 70
     1
102
RTVSPost2010Prop44ColorIndex
 90
        5
102
RTVSPost2010Prop44ColorRGB
 90
      255
102
RTVSPost2010PropOp44
 70
     1
102
RTVSPost2010Prop45
280
     0
102
RTVSPost2010PropOp45
 70
     1
102
RTVSPost2010Prop46
 90
       50
102
RTVSPost2010PropOp46
 70
     1
102
RTVSPost2010Prop47
 90
       50
102
RTVSPost2010PropOp47
 70
     1
102
RTVSPost2010Prop48
 90
       50
102
RTVSPost2010PropOp48
 70
     1
102
RTVSPost2010Prop49
280
     0
102
RTVSPost2010PropOp49
 70
     1
102
RTVSPost2010Prop50
 90
       50
102
RTVSPost2010PropOp50
 70
     1
102
RTVSPost2010Prop51ColorIndex
 90
      256
102
RTVSPost2010Prop51ColorRGB
 90
-16777216
102
RTVSPost2010PropOp51
 70
     0
102
RTVSPost2010Prop52
140
1.0
102
RTVSPost2010PropOp52
 70
     0
102
RTVSPost2010Prop53
 90
        2
102
RTVSPost2010PropOp53
 70
     1
102
RTVSPost2010Prop54
  1
strokes_ogs.tif
102
RTVSPost2010PropOp54
 70
     1
102
RTVSPost2010Prop55
280
     0
102
RTVSPost2010PropOp55
 70
     1
102
RTVSPost2010Prop56
140
1.0
102
RTVSPost2010PropOp56
 70
     1
102
RTVSPost2010Prop57
140
1.0
102
RTVSPost2010PropOp57
 70
     1
102
RTVSPropertyOp0
 70
     1
102
RTVSPropertyOp1
 70
     1
102
RTVSPropertyOp2
 70
     1
102
RTVSPropertyOp3
 70
     1
102
RTVSPropertyOp4
 70
     1
102
RTVSPropertyOp5
 70
     1
102
RTVSPropertyOp6
 70
     1
102
RTVSPropertyOp7
 70
     1
102
RTVSPropertyOp8
 70
     1
102
RTVSPropertyOp9
 70
     1
102
RTVSPropertyOp10
 70
     1
102
RTVSPropertyOp11
 70
     1
102
RTVSPropertyOp12
 70
     1
102
RTVSPropertyOp13
 70
     1
102
RTVSPropertyOp14
 70
     1
102
RTVSPropertyOp15
 70
     1
102
RTVSPropertyOp16
 70
     1
102
RTVSPropertyOp17
 70
     1
102
RTVSPropertyOp18
 70
     1
102
RTVSPropertyOp19
 70
     1
102
RTVSPropertyOp20
 70
     1
102
RTVSPropertyOp21
 70
     1
102
RTVSPropertyOp22
 70
     1
102
RTVSPropertyOp23
 70
     1
102
RTVSPropertyOp24
 70
     1
102
RTVSPropertyOp25
 70
     1
102
RTVSPropertyOp26
 70
     1
102
RTVSPropertyOp27
 70
     1
102
RTVSPropertyOp28
 70
     1
102
RTVSPropertyOp29
 70
     1
102
RTVSPropertyOp30
 70
     1
102
RTVSPropertyOp31
 70
     1
102
RTVSPropertyOp32
 70
     1
102
RTVSPropertyOp33
 70
     1
102
RTVSPropertyOp34
 70
     1
102
RTVSPropertyOp35
 70
     1
102
RTVSPropertyOp36
 70
     1
102
RTVSPropertyOp37
 70
     1
102
RTVSPropertyOp38
 70
     1
102
RTVSPropertyOp39
 70
     1
102
RTVSPropertyOp40
 70
     1
102
RTVSPropertyOp41
 70
     1
102
RTVSPropertyOp42
 70
     1
102
RTVSPropertyOp43
 70
     1
102
RTVSPropertyOp44
 70
     1
102
RTVSPropertyOp45
 70
     1
102
RTVSPropertyOp46
 70
     1
102
RTVSPropertyOp47
 70
     1
102
RTVSPropertyOp48
 70
     1
102
RTVSPropertyOp49
 70
     1
102
RTVSPropertyOp50
 70
     1
102
RTVSPropertyOp51
 70
     0
102
RTVSPropertyOp52
 70
     0
102
RTVSPropertyOp53
 70
     1
102
RTVSPropertyOp54
 70
     1
102
RTVSPropertyOp55
 70
     1
102
RTVSPropertyOp56
 70
     1
102
RTVSPropertyOp57
 70
     1
102
RTVSPropertyOp58
 70
     1
102
RTVSPropertyOp59
 70
     1
102
RTVSPropertyOp60
 70
     1
102
RTVSPropertyOp61
 70
     1
102
RTVSPropertyOp62
 70
     1
  0
XRECORD
  5
10A7F
102
{ACAD_REACTORS
330
10A7E
102
}
330
10A7E
100
AcDbXrecord
280
     1
102
RTVSPost2010Prop28
280
     0
102
RTVSPost2010PropOp28
 70
     1
102
RTVSPost2010Prop29
280
     1
102
RTVSPost2010PropOp29
 70
     1
102
RTVSPost2010Prop30
280
     1
102
RTVSPost2010PropOp30
 70
     1
102
RTVSPost2010Prop31
280
     0
102
RTVSPost2010PropOp31
 70
     1
102
RTVSPost2010Prop32
280
     0
102
RTVSPost2010PropOp32
 70
     1
102
RTVSPost2010Prop33
280
     0
102
RTVSPost2010PropOp33
 70
     1
102
RTVSPost2010Prop34
280
     0
102
RTVSPost2010PropOp34
 70
     1
102
RTVSPost2010Prop35
280
     0
102
RTVSPost2010PropOp35
 70
     1
102
RTVSPost2010Prop36
280
     0
102
RTVSPost2010PropOp36
 70
     1
102
RTVSPost2010Prop37
 90
       50
102
RTVSPost2010PropOp37
 70
     0
102
RTVSPost2010Prop38
140
0.0
102
RTVSPost2010PropOp38
 70
     0
102
RTVSPost2010Prop39
140
1.0
102
RTVSPost2010PropOp39
 70
     0
102
RTVSPost2010Prop40
 90
        0
102
RTVSPost2010PropOp40
 70
     0
102
RTVSPost2010Prop41ColorIndex
 90
       18
102
RTVSPost2010Prop41ColorRGB
 90
        0
102
RTVSPost2010PropOp41
 70
     0
102
RTVSPost2010Prop42
 90
       50
102
RTVSPost2010PropOp42
 70
     0
102
RTVSPost2010Prop43
 90
        3
102
RTVSPost2010PropOp43
 70
     0
102
RTVSPost2010Prop44ColorIndex
 90
        5
102
RTVSPost2010Prop44ColorRGB
 90
      255
102
RTVSPost2010PropOp44
 70
     0
102
RTVSPost2010Prop45
280
     0
102
RTVSPost2010PropOp45
 70
     1
102
RTVSPost2010Prop46
 90
       50
102
RTVSPost2010PropOp46
 70
     0
102
RTVSPost2010Prop47
 90
       50
102
RTVSPost2010PropOp47
 70
     0
102
RTVSPost2010Prop48
 90
       50
102
RTVSPost2010PropOp48
 70
     0
102
RTVSPost2010Prop49
280
     0
102
RTVSPost2010PropOp49
 70
     1
102
RTVSPost2010Prop50
 90
       50
102
RTVSPost2010PropOp50
 70
     0
102
RTVSPost2010Prop51ColorIndex
 90
      256
102
RTVSPost2010Prop51ColorRGB
 90
-16777216
102
RTVSPost2010PropOp51
 70
     0
102
RTVSPost2010Prop52
140
1.0
102
RTVSPost2010PropOp52
 70
     0
102
RTVSPost2010Prop53
 90
        2
102
RTVSPost2010PropOp53
 70
     0
102
RTVSPost2010Prop54
  1
strokes_ogs.tif
102
RTVSPost2010PropOp54
 70
     0
102
RTVSPost2010Prop55
280
     0
102
RTVSPost2010PropOp55
 70
     1
102
RTVSPost2010Prop56
140
1.0
102
RTVSPost2010PropOp56
 70
     0
102
RTVSPost2010Prop57
140
1.0
102
RTVSPost2010PropOp57
 70
     0
102
RTVSPropertyOp0
 70
     0
102
RTVSPropertyOp1
 70
     0
102
RTVSPropertyOp2
 70
     0
102
RTVSPropertyOp3
 70
     0
102
RTVSPropertyOp4
 70
     0
102
RTVSPropertyOp5
 70
     0
102
RTVSPropertyOp6
 70
     0
102
RTVSPropertyOp7
 70
     0
102
RTVSPropertyOp8
 70
     0
102
RTVSPropertyOp9
 70
     0
102
RTVSPropertyOp10
 70
     0
102
RTVSPropertyOp11
 70
     0
102
RTVSPropertyOp12
 70
     0
102
RTVSPropertyOp13
 70
     0
102
RTVSPropertyOp14
 70
     2
102
RTVSPropertyOp15
 70
     0
102
RTVSPropertyOp16
 70
     0
102
RTVSPropertyOp17
 70
     0
102
RTVSPropertyOp18
 70
     0
102
RTVSPropertyOp19
 70
     0
102
RTVSPropertyOp20
 70
     0
102
RTVSPropertyOp21
 70
     0
102
RTVSPropertyOp22
 70
     0
102
RTVSPropertyOp23
 70
     0
102
RTVSPropertyOp24
 70
     0
102
RTVSPropertyOp25
 70
     0
102
RTVSPropertyOp26
 70
     0
102
RTVSPropertyOp27
 70
     0
102
RTVSPropertyOp28
 70
     1
102
RTVSPropertyOp29
 70
     1
102
RTVSPropertyOp30
 70
     1
102
RTVSPropertyOp31
 70
     1
102
RTVSPropertyOp32
 70
     1
102
RTVSPropertyOp33
 70
     1
102
RTVSPropertyOp34
 70
     1
102
RTVSPropertyOp35
 70
     1
102
RTVSPropertyOp36
 70
     1
102
RTVSPropertyOp37
 70
     0
102
RTVSPropertyOp38
 70
     0
102
RTVSPropertyOp39
 70
     0
102
RTVSPropertyOp40
 70
     0
102
RTVSPropertyOp41
 70
     0
102
RTVSPropertyOp42
 70
     0
102
RTVSPropertyOp43
 70
     0
102
RTVSPropertyOp44
 70
     0
102
RTVSPropertyOp45
 70
     1
102
RTVSPropertyOp46
 70
     0
102
RTVSPropertyOp47
 70
     0
102
RTVSPropertyOp48
 70
     0
102
RTVSPropertyOp49
 70
     1
102
RTVSPropertyOp50
 70
     0
102
RTVSPropertyOp51
 70
     0
102
RTVSPropertyOp52
 70
     0
102
RTVSPropertyOp53
 70
     0
102
RTVSPropertyOp54
 70
     0
102
RTVSPropertyOp55
 70
     1
102
RTVSPropertyOp56
 70
     0
102
RTVSPropertyOp57
 70
     0
102
RTVSPropertyOp58
 70
     0
102
RTVSPropertyOp59
 70
     0
102
RTVSPropertyOp60
 70
     0
102
RTVSPropertyOp61
 70
     0
102
RTVSPropertyOp62
 70
     0
  0
XRECORD
  5
10A65
102
{ACAD_REACTORS
330
10A64
102
}
330
10A64
100
AcDbXrecord
280
     1
102
RTVSPost2010Prop28
280
     0
102
RTVSPost2010PropOp28
 70
     1
102
RTVSPost2010Prop29
280
     1
102
RTVSPost2010PropOp29
 70
     1
102
RTVSPost2010Prop30
280
     1
102
RTVSPost2010PropOp30
 70
     1
102
RTVSPost2010Prop31
280
     0
102
RTVSPost2010PropOp31
 70
     1
102
RTVSPost2010Prop32
280
     0
102
RTVSPost2010PropOp32
 70
     1
102
RTVSPost2010Prop33
280
     0
102
RTVSPost2010PropOp33
 70
     1
102
RTVSPost2010Prop34
280
     0
102
RTVSPost2010PropOp34
 70
     1
102
RTVSPost2010Prop35
280
     0
102
RTVSPost2010PropOp35
 70
     1
102
RTVSPost2010Prop36
280
     0
102
RTVSPost2010PropOp36
 70
     1
102
RTVSPost2010Prop37
 90
       50
102
RTVSPost2010PropOp37
 70
     1
102
RTVSPost2010Prop38
140
0.0
102
RTVSPost2010PropOp38
 70
     1
102
RTVSPost2010Prop39
140
1.0
102
RTVSPost2010PropOp39
 70
     1
102
RTVSPost2010Prop40
 90
        0
102
RTVSPost2010PropOp40
 70
     1
102
RTVSPost2010Prop41ColorIndex
 90
       18
102
RTVSPost2010Prop41ColorRGB
 90
        0
102
RTVSPost2010PropOp41
 70
     1
102
RTVSPost2010Prop42
 90
       50
102
RTVSPost2010PropOp42
 70
     1
102
RTVSPost2010Prop43
 90
        3
102
RTVSPost2010PropOp43
 70
     1
102
RTVSPost2010Prop44ColorIndex
 90
        5
102
RTVSPost2010Prop44ColorRGB
 90
      255
102
RTVSPost2010PropOp44
 70
     1
102
RTVSPost2010Prop45
280
     0
102
RTVSPost2010PropOp45
 70
     1
102
RTVSPost2010Prop46
 90
       50
102
RTVSPost2010PropOp46
 70
     1
102
RTVSPost2010Prop47
 90
       50
102
RTVSPost2010PropOp47
 70
     1
102
RTVSPost2010Prop48
 90
       50
102
RTVSPost2010PropOp48
 70
     1
102
RTVSPost2010Prop49
280
     0
102
RTVSPost2010PropOp49
 70
     1
102
RTVSPost2010Prop50
 90
       50
102
RTVSPost2010PropOp50
 70
     1
102
RTVSPost2010Prop51ColorIndex
 90
      256
102
RTVSPost2010Prop51ColorRGB
 90
-16777216
102
RTVSPost2010PropOp51
 70
     0
102
RTVSPost2010Prop52
140
1.0
102
RTVSPost2010PropOp52
 70
     0
102
RTVSPost2010Prop53
 90
        2
102
RTVSPost2010PropOp53
 70
     1
102
RTVSPost2010Prop54
  1
strokes_ogs.tif
102
RTVSPost2010PropOp54
 70
     1
102
RTVSPost2010Prop55
280
     0
102
RTVSPost2010PropOp55
 70
     1
102
RTVSPost2010Prop56
140
1.0
102
RTVSPost2010PropOp56
 70
     1
102
RTVSPost2010Prop57
140
1.0
102
RTVSPost2010PropOp57
 70
     1
102
RTVSPropertyOp0
 70
     1
102
RTVSPropertyOp1
 70
     1
102
RTVSPropertyOp2
 70
     1
102
RTVSPropertyOp3
 70
     1
102
RTVSPropertyOp4
 70
     1
102
RTVSPropertyOp5
 70
     1
102
RTVSPropertyOp6
 70
     1
102
RTVSPropertyOp7
 70
     1
102
RTVSPropertyOp8
 70
     1
102
RTVSPropertyOp9
 70
     1
102
RTVSPropertyOp10
 70
     1
102
RTVSPropertyOp11
 70
     1
102
RTVSPropertyOp12
 70
     1
102
RTVSPropertyOp13
 70
     1
102
RTVSPropertyOp14
 70
     1
102
RTVSPropertyOp15
 70
     1
102
RTVSPropertyOp16
 70
     1
102
RTVSPropertyOp17
 70
     1
102
RTVSPropertyOp18
 70
     1
102
RTVSPropertyOp19
 70
     1
102
RTVSPropertyOp20
 70
     1
102
RTVSPropertyOp21
 70
     1
102
RTVSPropertyOp22
 70
     1
102
RTVSPropertyOp23
 70
     1
102
RTVSPropertyOp24
 70
     1
102
RTVSPropertyOp25
 70
     1
102
RTVSPropertyOp26
 70
     1
102
RTVSPropertyOp27
 70
     1
102
RTVSPropertyOp28
 70
     1
102
RTVSPropertyOp29
 70
     1
102
RTVSPropertyOp30
 70
     1
102
RTVSPropertyOp31
 70
     1
102
RTVSPropertyOp32
 70
     1
102
RTVSPropertyOp33
 70
     1
102
RTVSPropertyOp34
 70
     1
102
RTVSPropertyOp35
 70
     1
102
RTVSPropertyOp36
 70
     1
102
RTVSPropertyOp37
 70
     1
102
RTVSPropertyOp38
 70
     1
102
RTVSPropertyOp39
 70
     1
102
RTVSPropertyOp40
 70
     1
102
RTVSPropertyOp41
 70
     1
102
RTVSPropertyOp42
 70
     1
102
RTVSPropertyOp43
 70
     1
102
RTVSPropertyOp44
 70
     1
102
RTVSPropertyOp45
 70
     1
102
RTVSPropertyOp46
 70
     1
102
RTVSPropertyOp47
 70
     1
102
RTVSPropertyOp48
 70
     1
102
RTVSPropertyOp49
 70
     1
102
RTVSPropertyOp50
 70
     1
102
RTVSPropertyOp51
 70
     0
102
RTVSPropertyOp52
 70
     0
102
RTVSPropertyOp53
 70
     1
102
RTVSPropertyOp54
 70
     1
102
RTVSPropertyOp55
 70
     1
102
RTVSPropertyOp56
 70
     1
102
RTVSPropertyOp57
 70
     1
102
RTVSPropertyOp58
 70
     1
102
RTVSPropertyOp59
 70
     1
102
RTVSPropertyOp60
 70
     1
102
RTVSPropertyOp61
 70
     1
102
RTVSPropertyOp62
 70
     1
  0
XRECORD
  5
10A7B
102
{ACAD_REACTORS
330
10A7A
102
}
330
10A7A
100
AcDbXrecord
280
     1
102
RTVSPost2010Prop28
280
     0
102
RTVSPost2010PropOp28
 70
     1
102
RTVSPost2010Prop29
280
     1
102
RTVSPost2010PropOp29
 70
     1
102
RTVSPost2010Prop30
280
     1
102
RTVSPost2010PropOp30
 70
     1
102
RTVSPost2010Prop31
280
     0
102
RTVSPost2010PropOp31
 70
     1
102
RTVSPost2010Prop32
280
     0
102
RTVSPost2010PropOp32
 70
     1
102
RTVSPost2010Prop33
280
     0
102
RTVSPost2010PropOp33
 70
     1
102
RTVSPost2010Prop34
280
     0
102
RTVSPost2010PropOp34
 70
     1
102
RTVSPost2010Prop35
280
     0
102
RTVSPost2010PropOp35
 70
     1
102
RTVSPost2010Prop36
280
     0
102
RTVSPost2010PropOp36
 70
     1
102
RTVSPost2010Prop37
 90
       50
102
RTVSPost2010PropOp37
 70
     1
102
RTVSPost2010Prop38
140
0.0
102
RTVSPost2010PropOp38
 70
     1
102
RTVSPost2010Prop39
140
1.0
102
RTVSPost2010PropOp39
 70
     1
102
RTVSPost2010Prop40
 90
        0
102
RTVSPost2010PropOp40
 70
     1
102
RTVSPost2010Prop41ColorIndex
 90
       18
102
RTVSPost2010Prop41ColorRGB
 90
        0
102
RTVSPost2010PropOp41
 70
     1
102
RTVSPost2010Prop42
 90
       50
102
RTVSPost2010PropOp42
 70
     1
102
RTVSPost2010Prop43
 90
        3
102
RTVSPost2010PropOp43
 70
     1
102
RTVSPost2010Prop44ColorIndex
 90
        5
102
RTVSPost2010Prop44ColorRGB
 90
      255
102
RTVSPost2010PropOp44
 70
     1
102
RTVSPost2010Prop45
280
     0
102
RTVSPost2010PropOp45
 70
     1
102
RTVSPost2010Prop46
 90
       50
102
RTVSPost2010PropOp46
 70
     1
102
RTVSPost2010Prop47
 90
       50
102
RTVSPost2010PropOp47
 70
     1
102
RTVSPost2010Prop48
 90
       50
102
RTVSPost2010PropOp48
 70
     1
102
RTVSPost2010Prop49
280
     0
102
RTVSPost2010PropOp49
 70
     1
102
RTVSPost2010Prop50
 90
       50
102
RTVSPost2010PropOp50
 70
     1
102
RTVSPost2010Prop51ColorIndex
 90
      256
102
RTVSPost2010Prop51ColorRGB
 90
-16777216
102
RTVSPost2010PropOp51
 70
     0
102
RTVSPost2010Prop52
140
1.0
102
RTVSPost2010PropOp52
 70
     0
102
RTVSPost2010Prop53
 90
        2
102
RTVSPost2010PropOp53
 70
     1
102
RTVSPost2010Prop54
  1
strokes_ogs.tif
102
RTVSPost2010PropOp54
 70
     1
102
RTVSPost2010Prop55
280
     0
102
RTVSPost2010PropOp55
 70
     1
102
RTVSPost2010Prop56
140
1.0
102
RTVSPost2010PropOp56
 70
     1
102
RTVSPost2010Prop57
140
1.0
102
RTVSPost2010PropOp57
 70
     1
102
RTVSPropertyOp0
 70
     1
102
RTVSPropertyOp1
 70
     1
102
RTVSPropertyOp2
 70
     1
102
RTVSPropertyOp3
 70
     1
102
RTVSPropertyOp4
 70
     1
102
RTVSPropertyOp5
 70
     1
102
RTVSPropertyOp6
 70
     1
102
RTVSPropertyOp7
 70
     1
102
RTVSPropertyOp8
 70
     1
102
RTVSPropertyOp9
 70
     1
102
RTVSPropertyOp10
 70
     1
102
RTVSPropertyOp11
 70
     1
102
RTVSPropertyOp12
 70
     1
102
RTVSPropertyOp13
 70
     1
102
RTVSPropertyOp14
 70
     1
102
RTVSPropertyOp15
 70
     1
102
RTVSPropertyOp16
 70
     1
102
RTVSPropertyOp17
 70
     1
102
RTVSPropertyOp18
 70
     1
102
RTVSPropertyOp19
 70
     1
102
RTVSPropertyOp20
 70
     1
102
RTVSPropertyOp21
 70
     1
102
RTVSPropertyOp22
 70
     1
102
RTVSPropertyOp23
 70
     1
102
RTVSPropertyOp24
 70
     1
102
RTVSPropertyOp25
 70
     1
102
RTVSPropertyOp26
 70
     1
102
RTVSPropertyOp27
 70
     1
102
RTVSPropertyOp28
 70
     1
102
RTVSPropertyOp29
 70
     1
102
RTVSPropertyOp30
 70
     1
102
RTVSPropertyOp31
 70
     1
102
RTVSPropertyOp32
 70
     1
102
RTVSPropertyOp33
 70
     1
102
RTVSPropertyOp34
 70
     1
102
RTVSPropertyOp35
 70
     1
102
RTVSPropertyOp36
 70
     1
102
RTVSPropertyOp37
 70
     1
102
RTVSPropertyOp38
 70
     1
102
RTVSPropertyOp39
 70
     1
102
RTVSPropertyOp40
 70
     1
102
RTVSPropertyOp41
 70
     1
102
RTVSPropertyOp42
 70
     1
102
RTVSPropertyOp43
 70
     1
102
RTVSPropertyOp44
 70
     1
102
RTVSPropertyOp45
 70
     1
102
RTVSPropertyOp46
 70
     1
102
RTVSPropertyOp47
 70
     1
102
RTVSPropertyOp48
 70
     1
102
RTVSPropertyOp49
 70
     1
102
RTVSPropertyOp50
 70
     1
102
RTVSPropertyOp51
 70
     0
102
RTVSPropertyOp52
 70
     0
102
RTVSPropertyOp53
 70
     1
102
RTVSPropertyOp54
 70
     1
102
RTVSPropertyOp55
 70
     1
102
RTVSPropertyOp56
 70
     1
102
RTVSPropertyOp57
 70
     1
102
RTVSPropertyOp58
 70
     1
102
RTVSPropertyOp59
 70
     1
102
RTVSPropertyOp60
 70
     1
102
RTVSPropertyOp61
 70
     1
102
RTVSPropertyOp62
 70
     1
  0
XRECORD
  5
10A79
102
{ACAD_REACTORS
330
10A78
102
}
330
10A78
100
AcDbXrecord
280
     1
102
RTVSPost2010Prop28
280
     0
102
RTVSPost2010PropOp28
 70
     1
102
RTVSPost2010Prop29
280
     1
102
RTVSPost2010PropOp29
 70
     1
102
RTVSPost2010Prop30
280
     1
102
RTVSPost2010PropOp30
 70
     1
102
RTVSPost2010Prop31
280
     0
102
RTVSPost2010PropOp31
 70
     1
102
RTVSPost2010Prop32
280
     0
102
RTVSPost2010PropOp32
 70
     1
102
RTVSPost2010Prop33
280
     0
102
RTVSPost2010PropOp33
 70
     1
102
RTVSPost2010Prop34
280
     0
102
RTVSPost2010PropOp34
 70
     1
102
RTVSPost2010Prop35
280
     0
102
RTVSPost2010PropOp35
 70
     1
102
RTVSPost2010Prop36
280
     0
102
RTVSPost2010PropOp36
 70
     1
102
RTVSPost2010Prop37
 90
       50
102
RTVSPost2010PropOp37
 70
     1
102
RTVSPost2010Prop38
140
0.0
102
RTVSPost2010PropOp38
 70
     1
102
RTVSPost2010Prop39
140
1.0
102
RTVSPost2010PropOp39
 70
     1
102
RTVSPost2010Prop40
 90
        0
102
RTVSPost2010PropOp40
 70
     1
102
RTVSPost2010Prop41ColorIndex
 90
       18
102
RTVSPost2010Prop41ColorRGB
 90
        0
102
RTVSPost2010PropOp41
 70
     1
102
RTVSPost2010Prop42
 90
       50
102
RTVSPost2010PropOp42
 70
     1
102
RTVSPost2010Prop43
 90
        3
102
RTVSPost2010PropOp43
 70
     1
102
RTVSPost2010Prop44ColorIndex
 90
        5
102
RTVSPost2010Prop44ColorRGB
 90
      255
102
RTVSPost2010PropOp44
 70
     1
102
RTVSPost2010Prop45
280
     0
102
RTVSPost2010PropOp45
 70
     1
102
RTVSPost2010Prop46
 90
       50
102
RTVSPost2010PropOp46
 70
     1
102
RTVSPost2010Prop47
 90
       50
102
RTVSPost2010PropOp47
 70
     1
102
RTVSPost2010Prop48
 90
       50
102
RTVSPost2010PropOp48
 70
     1
102
RTVSPost2010Prop49
280
     0
102
RTVSPost2010PropOp49
 70
     1
102
RTVSPost2010Prop50
 90
       50
102
RTVSPost2010PropOp50
 70
     1
102
RTVSPost2010Prop51ColorIndex
 90
      256
102
RTVSPost2010Prop51ColorRGB
 90
-16777216
102
RTVSPost2010PropOp51
 70
     0
102
RTVSPost2010Prop52
140
1.0
102
RTVSPost2010PropOp52
 70
     0
102
RTVSPost2010Prop53
 90
        2
102
RTVSPost2010PropOp53
 70
     1
102
RTVSPost2010Prop54
  1
strokes_ogs.tif
102
RTVSPost2010PropOp54
 70
     1
102
RTVSPost2010Prop55
280
     0
102
RTVSPost2010PropOp55
 70
     1
102
RTVSPost2010Prop56
140
1.0
102
RTVSPost2010PropOp56
 70
     1
102
RTVSPost2010Prop57
140
1.0
102
RTVSPost2010PropOp57
 70
     1
102
RTVSPropertyOp0
 70
     1
102
RTVSPropertyOp1
 70
     1
102
RTVSPropertyOp2
 70
     1
102
RTVSPropertyOp3
 70
     1
102
RTVSPropertyOp4
 70
     1
102
RTVSPropertyOp5
 70
     1
102
RTVSPropertyOp6
 70
     1
102
RTVSPropertyOp7
 70
     1
102
RTVSPropertyOp8
 70
     1
102
RTVSPropertyOp9
 70
     1
102
RTVSPropertyOp10
 70
     1
102
RTVSPropertyOp11
 70
     1
102
RTVSPropertyOp12
 70
     1
102
RTVSPropertyOp13
 70
     1
102
RTVSPropertyOp14
 70
     1
102
RTVSPropertyOp15
 70
     1
102
RTVSPropertyOp16
 70
     1
102
RTVSPropertyOp17
 70
     1
102
RTVSPropertyOp18
 70
     1
102
RTVSPropertyOp19
 70
     1
102
RTVSPropertyOp20
 70
     1
102
RTVSPropertyOp21
 70
     1
102
RTVSPropertyOp22
 70
     1
102
RTVSPropertyOp23
 70
     1
102
RTVSPropertyOp24
 70
     1
102
RTVSPropertyOp25
 70
     1
102
RTVSPropertyOp26
 70
     1
102
RTVSPropertyOp27
 70
     1
102
RTVSPropertyOp28
 70
     1
102
RTVSPropertyOp29
 70
     1
102
RTVSPropertyOp30
 70
     1
102
RTVSPropertyOp31
 70
     1
102
RTVSPropertyOp32
 70
     1
102
RTVSPropertyOp33
 70
     1
102
RTVSPropertyOp34
 70
     1
102
RTVSPropertyOp35
 70
     1
102
RTVSPropertyOp36
 70
     1
102
RTVSPropertyOp37
 70
     1
102
RTVSPropertyOp38
 70
     1
102
RTVSPropertyOp39
 70
     1
102
RTVSPropertyOp40
 70
     1
102
RTVSPropertyOp41
 70
     1
102
RTVSPropertyOp42
 70
     1
102
RTVSPropertyOp43
 70
     1
102
RTVSPropertyOp44
 70
     1
102
RTVSPropertyOp45
 70
     1
102
RTVSPropertyOp46
 70
     1
102
RTVSPropertyOp47
 70
     1
102
RTVSPropertyOp48
 70
     1
102
RTVSPropertyOp49
 70
     1
102
RTVSPropertyOp50
 70
     1
102
RTVSPropertyOp51
 70
     0
102
RTVSPropertyOp52
 70
     0
102
RTVSPropertyOp53
 70
     1
102
RTVSPropertyOp54
 70
     1
102
RTVSPropertyOp55
 70
     1
102
RTVSPropertyOp56
 70
     1
102
RTVSPropertyOp57
 70
     1
102
RTVSPropertyOp58
 70
     1
102
RTVSPropertyOp59
 70
     1
102
RTVSPropertyOp60
 70
     1
102
RTVSPropertyOp61
 70
     1
102
RTVSPropertyOp62
 70
     1
  0
XRECORD
  5
10A73
102
{ACAD_REACTORS
330
10A72
102
}
330
10A72
100
AcDbXrecord
280
     1
102
RTVSPost2010Prop28
280
     0
102
RTVSPost2010PropOp28
 70
     1
102
RTVSPost2010Prop29
280
     1
102
RTVSPost2010PropOp29
 70
     1
102
RTVSPost2010Prop30
280
     1
102
RTVSPost2010PropOp30
 70
     1
102
RTVSPost2010Prop31
280
     0
102
RTVSPost2010PropOp31
 70
     1
102
RTVSPost2010Prop32
280
     0
102
RTVSPost2010PropOp32
 70
     1
102
RTVSPost2010Prop33
280
     0
102
RTVSPost2010PropOp33
 70
     1
102
RTVSPost2010Prop34
280
     0
102
RTVSPost2010PropOp34
 70
     1
102
RTVSPost2010Prop35
280
     0
102
RTVSPost2010PropOp35
 70
     1
102
RTVSPost2010Prop36
280
     0
102
RTVSPost2010PropOp36
 70
     1
102
RTVSPost2010Prop37
 90
       50
102
RTVSPost2010PropOp37
 70
     1
102
RTVSPost2010Prop38
140
0.0
102
RTVSPost2010PropOp38
 70
     1
102
RTVSPost2010Prop39
140
1.0
102
RTVSPost2010PropOp39
 70
     1
102
RTVSPost2010Prop40
 90
        0
102
RTVSPost2010PropOp40
 70
     1
102
RTVSPost2010Prop41ColorIndex
 90
       18
102
RTVSPost2010Prop41ColorRGB
 90
        0
102
RTVSPost2010PropOp41
 70
     1
102
RTVSPost2010Prop42
 90
       50
102
RTVSPost2010PropOp42
 70
     1
102
RTVSPost2010Prop43
 90
        3
102
RTVSPost2010PropOp43
 70
     1
102
RTVSPost2010Prop44ColorIndex
 90
        5
102
RTVSPost2010Prop44ColorRGB
 90
      255
102
RTVSPost2010PropOp44
 70
     1
102
RTVSPost2010Prop45
280
     0
102
RTVSPost2010PropOp45
 70
     1
102
RTVSPost2010Prop46
 90
       50
102
RTVSPost2010PropOp46
 70
     1
102
RTVSPost2010Prop47
 90
       50
102
RTVSPost2010PropOp47
 70
     1
102
RTVSPost2010Prop48
 90
       50
102
RTVSPost2010PropOp48
 70
     1
102
RTVSPost2010Prop49
280
     0
102
RTVSPost2010PropOp49
 70
     1
102
RTVSPost2010Prop50
 90
       50
102
RTVSPost2010PropOp50
 70
     1
102
RTVSPost2010Prop51ColorIndex
 90
      256
102
RTVSPost2010Prop51ColorRGB
 90
-16777216
102
RTVSPost2010PropOp51
 70
     0
102
RTVSPost2010Prop52
140
1.0
102
RTVSPost2010PropOp52
 70
     0
102
RTVSPost2010Prop53
 90
        2
102
RTVSPost2010PropOp53
 70
     1
102
RTVSPost2010Prop54
  1
strokes_ogs.tif
102
RTVSPost2010PropOp54
 70
     1
102
RTVSPost2010Prop55
280
     0
102
RTVSPost2010PropOp55
 70
     1
102
RTVSPost2010Prop56
140
1.0
102
RTVSPost2010PropOp56
 70
     1
102
RTVSPost2010Prop57
140
1.0
102
RTVSPost2010PropOp57
 70
     1
102
RTVSPropertyOp0
 70
     1
102
RTVSPropertyOp1
 70
     1
102
RTVSPropertyOp2
 70
     1
102
RTVSPropertyOp3
 70
     1
102
RTVSPropertyOp4
 70
     1
102
RTVSPropertyOp5
 70
     1
102
RTVSPropertyOp6
 70
     1
102
RTVSPropertyOp7
 70
     1
102
RTVSPropertyOp8
 70
     1
102
RTVSPropertyOp9
 70
     1
102
RTVSPropertyOp10
 70
     1
102
RTVSPropertyOp11
 70
     1
102
RTVSPropertyOp12
 70
     1
102
RTVSPropertyOp13
 70
     1
102
RTVSPropertyOp14
 70
     1
102
RTVSPropertyOp15
 70
     1
102
RTVSPropertyOp16
 70
     1
102
RTVSPropertyOp17
 70
     1
102
RTVSPropertyOp18
 70
     1
102
RTVSPropertyOp19
 70
     1
102
RTVSPropertyOp20
 70
     1
102
RTVSPropertyOp21
 70
     1
102
RTVSPropertyOp22
 70
     1
102
RTVSPropertyOp23
 70
     1
102
RTVSPropertyOp24
 70
     1
102
RTVSPropertyOp25
 70
     1
102
RTVSPropertyOp26
 70
     1
102
RTVSPropertyOp27
 70
     1
102
RTVSPropertyOp28
 70
     1
102
RTVSPropertyOp29
 70
     1
102
RTVSPropertyOp30
 70
     1
102
RTVSPropertyOp31
 70
     1
102
RTVSPropertyOp32
 70
     1
102
RTVSPropertyOp33
 70
     1
102
RTVSPropertyOp34
 70
     1
102
RTVSPropertyOp35
 70
     1
102
RTVSPropertyOp36
 70
     1
102
RTVSPropertyOp37
 70
     1
102
RTVSPropertyOp38
 70
     1
102
RTVSPropertyOp39
 70
     1
102
RTVSPropertyOp40
 70
     1
102
RTVSPropertyOp41
 70
     1
102
RTVSPropertyOp42
 70
     1
102
RTVSPropertyOp43
 70
     1
102
RTVSPropertyOp44
 70
     1
102
RTVSPropertyOp45
 70
     1
102
RTVSPropertyOp46
 70
     1
102
RTVSPropertyOp47
 70
     1
102
RTVSPropertyOp48
 70
     1
102
RTVSPropertyOp49
 70
     1
102
RTVSPropertyOp50
 70
     1
102
RTVSPropertyOp51
 70
     0
102
RTVSPropertyOp52
 70
     0
102
RTVSPropertyOp53
 70
     1
102
RTVSPropertyOp54
 70
     1
102
RTVSPropertyOp55
 70
     1
102
RTVSPropertyOp56
 70
     1
102
RTVSPropertyOp57
 70
     1
102
RTVSPropertyOp58
 70
     1
102
RTVSPropertyOp59
 70
     1
102
RTVSPropertyOp60
 70
     1
102
RTVSPropertyOp61
 70
     1
102
RTVSPropertyOp62
 70
     1
  0
XRECORD
  5
10A75
102
{ACAD_REACTORS
330
10A74
102
}
330
10A74
100
AcDbXrecord
280
     1
102
RTVSPost2010Prop28
280
     0
102
RTVSPost2010PropOp28
 70
     1
102
RTVSPost2010Prop29
280
     1
102
RTVSPost2010PropOp29
 70
     1
102
RTVSPost2010Prop30
280
     1
102
RTVSPost2010PropOp30
 70
     1
102
RTVSPost2010Prop31
280
     0
102
RTVSPost2010PropOp31
 70
     1
102
RTVSPost2010Prop32
280
     0
102
RTVSPost2010PropOp32
 70
     1
102
RTVSPost2010Prop33
280
     0
102
RTVSPost2010PropOp33
 70
     1
102
RTVSPost2010Prop34
280
     0
102
RTVSPost2010PropOp34
 70
     1
102
RTVSPost2010Prop35
280
     0
102
RTVSPost2010PropOp35
 70
     1
102
RTVSPost2010Prop36
280
     0
102
RTVSPost2010PropOp36
 70
     1
102
RTVSPost2010Prop37
 90
       50
102
RTVSPost2010PropOp37
 70
     1
102
RTVSPost2010Prop38
140
0.0
102
RTVSPost2010PropOp38
 70
     1
102
RTVSPost2010Prop39
140
1.0
102
RTVSPost2010PropOp39
 70
     1
102
RTVSPost2010Prop40
 90
        0
102
RTVSPost2010PropOp40
 70
     1
102
RTVSPost2010Prop41ColorIndex
 90
       18
102
RTVSPost2010Prop41ColorRGB
 90
        0
102
RTVSPost2010PropOp41
 70
     1
102
RTVSPost2010Prop42
 90
       50
102
RTVSPost2010PropOp42
 70
     1
102
RTVSPost2010Prop43
 90
        3
102
RTVSPost2010PropOp43
 70
     1
102
RTVSPost2010Prop44ColorIndex
 90
        5
102
RTVSPost2010Prop44ColorRGB
 90
      255
102
RTVSPost2010PropOp44
 70
     1
102
RTVSPost2010Prop45
280
     0
102
RTVSPost2010PropOp45
 70
     1
102
RTVSPost2010Prop46
 90
       50
102
RTVSPost2010PropOp46
 70
     1
102
RTVSPost2010Prop47
 90
       50
102
RTVSPost2010PropOp47
 70
     1
102
RTVSPost2010Prop48
 90
       50
102
RTVSPost2010PropOp48
 70
     1
102
RTVSPost2010Prop49
280
     0
102
RTVSPost2010PropOp49
 70
     1
102
RTVSPost2010Prop50
 90
       50
102
RTVSPost2010PropOp50
 70
     1
102
RTVSPost2010Prop51ColorIndex
 90
      256
102
RTVSPost2010Prop51ColorRGB
 90
-16777216
102
RTVSPost2010PropOp51
 70
     0
102
RTVSPost2010Prop52
140
1.0
102
RTVSPost2010PropOp52
 70
     0
102
RTVSPost2010Prop53
 90
        2
102
RTVSPost2010PropOp53
 70
     1
102
RTVSPost2010Prop54
  1
strokes_ogs.tif
102
RTVSPost2010PropOp54
 70
     1
102
RTVSPost2010Prop55
280
     0
102
RTVSPost2010PropOp55
 70
     1
102
RTVSPost2010Prop56
140
1.0
102
RTVSPost2010PropOp56
 70
     1
102
RTVSPost2010Prop57
140
1.0
102
RTVSPost2010PropOp57
 70
     1
102
RTVSPropertyOp0
 70
     1
102
RTVSPropertyOp1
 70
     1
102
RTVSPropertyOp2
 70
     1
102
RTVSPropertyOp3
 70
     1
102
RTVSPropertyOp4
 70
     1
102
RTVSPropertyOp5
 70
     1
102
RTVSPropertyOp6
 70
     1
102
RTVSPropertyOp7
 70
     1
102
RTVSPropertyOp8
 70
     1
102
RTVSPropertyOp9
 70
     1
102
RTVSPropertyOp10
 70
     1
102
RTVSPropertyOp11
 70
     1
102
RTVSPropertyOp12
 70
     1
102
RTVSPropertyOp13
 70
     1
102
RTVSPropertyOp14
 70
     1
102
RTVSPropertyOp15
 70
     1
102
RTVSPropertyOp16
 70
     1
102
RTVSPropertyOp17
 70
     1
102
RTVSPropertyOp18
 70
     1
102
RTVSPropertyOp19
 70
     1
102
RTVSPropertyOp20
 70
     1
102
RTVSPropertyOp21
 70
     1
102
RTVSPropertyOp22
 70
     1
102
RTVSPropertyOp23
 70
     1
102
RTVSPropertyOp24
 70
     1
102
RTVSPropertyOp25
 70
     1
102
RTVSPropertyOp26
 70
     1
102
RTVSPropertyOp27
 70
     1
102
RTVSPropertyOp28
 70
     1
102
RTVSPropertyOp29
 70
     1
102
RTVSPropertyOp30
 70
     1
102
RTVSPropertyOp31
 70
     1
102
RTVSPropertyOp32
 70
     1
102
RTVSPropertyOp33
 70
     1
102
RTVSPropertyOp34
 70
     1
102
RTVSPropertyOp35
 70
     1
102
RTVSPropertyOp36
 70
     1
102
RTVSPropertyOp37
 70
     1
102
RTVSPropertyOp38
 70
     1
102
RTVSPropertyOp39
 70
     1
102
RTVSPropertyOp40
 70
     1
102
RTVSPropertyOp41
 70
     1
102
RTVSPropertyOp42
 70
     1
102
RTVSPropertyOp43
 70
     1
102
RTVSPropertyOp44
 70
     1
102
RTVSPropertyOp45
 70
     1
102
RTVSPropertyOp46
 70
     1
102
RTVSPropertyOp47
 70
     1
102
RTVSPropertyOp48
 70
     1
102
RTVSPropertyOp49
 70
     1
102
RTVSPropertyOp50
 70
     1
102
RTVSPropertyOp51
 70
     0
102
RTVSPropertyOp52
 70
     0
102
RTVSPropertyOp53
 70
     1
102
RTVSPropertyOp54
 70
     1
102
RTVSPropertyOp55
 70
     1
102
RTVSPropertyOp56
 70
     1
102
RTVSPropertyOp57
 70
     1
102
RTVSPropertyOp58
 70
     1
102
RTVSPropertyOp59
 70
     1
102
RTVSPropertyOp60
 70
     1
102
RTVSPropertyOp61
 70
     1
102
RTVSPropertyOp62
 70
     1
  0
XRECORD
  5
10A6B
102
{ACAD_REACTORS
330
10A6A
102
}
330
10A6A
100
AcDbXrecord
280
     1
102
RTVSPost2010Prop28
280
     0
102
RTVSPost2010PropOp28
 70
     1
102
RTVSPost2010Prop29
280
     1
102
RTVSPost2010PropOp29
 70
     1
102
RTVSPost2010Prop30
280
     1
102
RTVSPost2010PropOp30
 70
     1
102
RTVSPost2010Prop31
280
     0
102
RTVSPost2010PropOp31
 70
     1
102
RTVSPost2010Prop32
280
     0
102
RTVSPost2010PropOp32
 70
     1
102
RTVSPost2010Prop33
280
     0
102
RTVSPost2010PropOp33
 70
     1
102
RTVSPost2010Prop34
280
     0
102
RTVSPost2010PropOp34
 70
     1
102
RTVSPost2010Prop35
280
     0
102
RTVSPost2010PropOp35
 70
     1
102
RTVSPost2010Prop36
280
     0
102
RTVSPost2010PropOp36
 70
     1
102
RTVSPost2010Prop37
 90
       50
102
RTVSPost2010PropOp37
 70
     1
102
RTVSPost2010Prop38
140
0.0
102
RTVSPost2010PropOp38
 70
     1
102
RTVSPost2010Prop39
140
1.0
102
RTVSPost2010PropOp39
 70
     1
102
RTVSPost2010Prop40
 90
        0
102
RTVSPost2010PropOp40
 70
     1
102
RTVSPost2010Prop41ColorIndex
 90
       18
102
RTVSPost2010Prop41ColorRGB
 90
        0
102
RTVSPost2010PropOp41
 70
     1
102
RTVSPost2010Prop42
 90
       50
102
RTVSPost2010PropOp42
 70
     1
102
RTVSPost2010Prop43
 90
        3
102
RTVSPost2010PropOp43
 70
     1
102
RTVSPost2010Prop44ColorIndex
 90
        5
102
RTVSPost2010Prop44ColorRGB
 90
      255
102
RTVSPost2010PropOp44
 70
     1
102
RTVSPost2010Prop45
280
     0
102
RTVSPost2010PropOp45
 70
     1
102
RTVSPost2010Prop46
 90
       50
102
RTVSPost2010PropOp46
 70
     1
102
RTVSPost2010Prop47
 90
       50
102
RTVSPost2010PropOp47
 70
     1
102
RTVSPost2010Prop48
 90
       50
102
RTVSPost2010PropOp48
 70
     1
102
RTVSPost2010Prop49
280
     0
102
RTVSPost2010PropOp49
 70
     1
102
RTVSPost2010Prop50
 90
       50
102
RTVSPost2010PropOp50
 70
     1
102
RTVSPost2010Prop51ColorIndex
 90
      256
102
RTVSPost2010Prop51ColorRGB
 90
-16777216
102
RTVSPost2010PropOp51
 70
     0
102
RTVSPost2010Prop52
140
1.0
102
RTVSPost2010PropOp52
 70
     0
102
RTVSPost2010Prop53
 90
        2
102
RTVSPost2010PropOp53
 70
     1
102
RTVSPost2010Prop54
  1
strokes_ogs.tif
102
RTVSPost2010PropOp54
 70
     1
102
RTVSPost2010Prop55
280
     0
102
RTVSPost2010PropOp55
 70
     1
102
RTVSPost2010Prop56
140
1.0
102
RTVSPost2010PropOp56
 70
     1
102
RTVSPost2010Prop57
140
1.0
102
RTVSPost2010PropOp57
 70
     1
102
RTVSPropertyOp0
 70
     1
102
RTVSPropertyOp1
 70
     1
102
RTVSPropertyOp2
 70
     1
102
RTVSPropertyOp3
 70
     1
102
RTVSPropertyOp4
 70
     1
102
RTVSPropertyOp5
 70
     1
102
RTVSPropertyOp6
 70
     1
102
RTVSPropertyOp7
 70
     1
102
RTVSPropertyOp8
 70
     1
102
RTVSPropertyOp9
 70
     1
102
RTVSPropertyOp10
 70
     1
102
RTVSPropertyOp11
 70
     1
102
RTVSPropertyOp12
 70
     1
102
RTVSPropertyOp13
 70
     1
102
RTVSPropertyOp14
 70
     1
102
RTVSPropertyOp15
 70
     1
102
RTVSPropertyOp16
 70
     1
102
RTVSPropertyOp17
 70
     1
102
RTVSPropertyOp18
 70
     1
102
RTVSPropertyOp19
 70
     1
102
RTVSPropertyOp20
 70
     1
102
RTVSPropertyOp21
 70
     1
102
RTVSPropertyOp22
 70
     1
102
RTVSPropertyOp23
 70
     1
102
RTVSPropertyOp24
 70
     1
102
RTVSPropertyOp25
 70
     1
102
RTVSPropertyOp26
 70
     1
102
RTVSPropertyOp27
 70
     1
102
RTVSPropertyOp28
 70
     1
102
RTVSPropertyOp29
 70
     1
102
RTVSPropertyOp30
 70
     1
102
RTVSPropertyOp31
 70
     1
102
RTVSPropertyOp32
 70
     1
102
RTVSPropertyOp33
 70
     1
102
RTVSPropertyOp34
 70
     1
102
RTVSPropertyOp35
 70
     1
102
RTVSPropertyOp36
 70
     1
102
RTVSPropertyOp37
 70
     1
102
RTVSPropertyOp38
 70
     1
102
RTVSPropertyOp39
 70
     1
102
RTVSPropertyOp40
 70
     1
102
RTVSPropertyOp41
 70
     1
102
RTVSPropertyOp42
 70
     1
102
RTVSPropertyOp43
 70
     1
102
RTVSPropertyOp44
 70
     1
102
RTVSPropertyOp45
 70
     1
102
RTVSPropertyOp46
 70
     1
102
RTVSPropertyOp47
 70
     1
102
RTVSPropertyOp48
 70
     1
102
RTVSPropertyOp49
 70
     1
102
RTVSPropertyOp50
 70
     1
102
RTVSPropertyOp51
 70
     0
102
RTVSPropertyOp52
 70
     0
102
RTVSPropertyOp53
 70
     1
102
RTVSPropertyOp54
 70
     1
102
RTVSPropertyOp55
 70
     1
102
RTVSPropertyOp56
 70
     1
102
RTVSPropertyOp57
 70
     1
102
RTVSPropertyOp58
 70
     1
102
RTVSPropertyOp59
 70
     1
102
RTVSPropertyOp60
 70
     1
102
RTVSPropertyOp61
 70
     1
102
RTVSPropertyOp62
 70
     1
  0
XRECORD
  5
10A5F
102
{ACAD_REACTORS
330
10A5E
102
}
330
10A5E
100
AcDbXrecord
280
     1
102
RTVSPost2010Prop28
280
     0
102
RTVSPost2010PropOp28
 70
     1
102
RTVSPost2010Prop29
280
     1
102
RTVSPost2010PropOp29
 70
     1
102
RTVSPost2010Prop30
280
     1
102
RTVSPost2010PropOp30
 70
     1
102
RTVSPost2010Prop31
280
     0
102
RTVSPost2010PropOp31
 70
     1
102
RTVSPost2010Prop32
280
     0
102
RTVSPost2010PropOp32
 70
     1
102
RTVSPost2010Prop33
280
     0
102
RTVSPost2010PropOp33
 70
     1
102
RTVSPost2010Prop34
280
     0
102
RTVSPost2010PropOp34
 70
     1
102
RTVSPost2010Prop35
280
     0
102
RTVSPost2010PropOp35
 70
     1
102
RTVSPost2010Prop36
280
     0
102
RTVSPost2010PropOp36
 70
     1
102
RTVSPost2010Prop37
 90
       50
102
RTVSPost2010PropOp37
 70
     1
102
RTVSPost2010Prop38
140
0.0
102
RTVSPost2010PropOp38
 70
     1
102
RTVSPost2010Prop39
140
1.0
102
RTVSPost2010PropOp39
 70
     1
102
RTVSPost2010Prop40
 90
        0
102
RTVSPost2010PropOp40
 70
     1
102
RTVSPost2010Prop41ColorIndex
 90
       18
102
RTVSPost2010Prop41ColorRGB
 90
        0
102
RTVSPost2010PropOp41
 70
     1
102
RTVSPost2010Prop42
 90
       50
102
RTVSPost2010PropOp42
 70
     1
102
RTVSPost2010Prop43
 90
        3
102
RTVSPost2010PropOp43
 70
     1
102
RTVSPost2010Prop44ColorIndex
 90
        5
102
RTVSPost2010Prop44ColorRGB
 90
      255
102
RTVSPost2010PropOp44
 70
     1
102
RTVSPost2010Prop45
280
     0
102
RTVSPost2010PropOp45
 70
     1
102
RTVSPost2010Prop46
 90
       50
102
RTVSPost2010PropOp46
 70
     1
102
RTVSPost2010Prop47
 90
       50
102
RTVSPost2010PropOp47
 70
     1
102
RTVSPost2010Prop48
 90
       50
102
RTVSPost2010PropOp48
 70
     1
102
RTVSPost2010Prop49
280
     0
102
RTVSPost2010PropOp49
 70
     1
102
RTVSPost2010Prop50
 90
       50
102
RTVSPost2010PropOp50
 70
     1
102
RTVSPost2010Prop51ColorIndex
 90
      256
102
RTVSPost2010Prop51ColorRGB
 90
-16777216
102
RTVSPost2010PropOp51
 70
     0
102
RTVSPost2010Prop52
140
1.0
102
RTVSPost2010PropOp52
 70
     0
102
RTVSPost2010Prop53
 90
        2
102
RTVSPost2010PropOp53
 70
     1
102
RTVSPost2010Prop54
  1
strokes_ogs.tif
102
RTVSPost2010PropOp54
 70
     1
102
RTVSPost2010Prop55
280
     0
102
RTVSPost2010PropOp55
 70
     1
102
RTVSPost2010Prop56
140
1.0
102
RTVSPost2010PropOp56
 70
     1
102
RTVSPost2010Prop57
140
1.0
102
RTVSPost2010PropOp57
 70
     1
102
RTVSPropertyOp0
 70
     1
102
RTVSPropertyOp1
 70
     1
102
RTVSPropertyOp2
 70
     1
102
RTVSPropertyOp3
 70
     1
102
RTVSPropertyOp4
 70
     1
102
RTVSPropertyOp5
 70
     1
102
RTVSPropertyOp6
 70
     1
102
RTVSPropertyOp7
 70
     1
102
RTVSPropertyOp8
 70
     1
102
RTVSPropertyOp9
 70
     1
102
RTVSPropertyOp10
 70
     1
102
RTVSPropertyOp11
 70
     1
102
RTVSPropertyOp12
 70
     1
102
RTVSPropertyOp13
 70
     1
102
RTVSPropertyOp14
 70
     1
102
RTVSPropertyOp15
 70
     1
102
RTVSPropertyOp16
 70
     1
102
RTVSPropertyOp17
 70
     1
102
RTVSPropertyOp18
 70
     1
102
RTVSPropertyOp19
 70
     1
102
RTVSPropertyOp20
 70
     1
102
RTVSPropertyOp21
 70
     1
102
RTVSPropertyOp22
 70
     1
102
RTVSPropertyOp23
 70
     1
102
RTVSPropertyOp24
 70
     1
102
RTVSPropertyOp25
 70
     1
102
RTVSPropertyOp26
 70
     1
102
RTVSPropertyOp27
 70
     1
102
RTVSPropertyOp28
 70
     1
102
RTVSPropertyOp29
 70
     1
102
RTVSPropertyOp30
 70
     1
102
RTVSPropertyOp31
 70
     1
102
RTVSPropertyOp32
 70
     1
102
RTVSPropertyOp33
 70
     1
102
RTVSPropertyOp34
 70
     1
102
RTVSPropertyOp35
 70
     1
102
RTVSPropertyOp36
 70
     1
102
RTVSPropertyOp37
 70
     1
102
RTVSPropertyOp38
 70
     1
102
RTVSPropertyOp39
 70
     1
102
RTVSPropertyOp40
 70
     1
102
RTVSPropertyOp41
 70
     1
102
RTVSPropertyOp42
 70
     1
102
RTVSPropertyOp43
 70
     1
102
RTVSPropertyOp44
 70
     1
102
RTVSPropertyOp45
 70
     1
102
RTVSPropertyOp46
 70
     1
102
RTVSPropertyOp47
 70
     1
102
RTVSPropertyOp48
 70
     1
102
RTVSPropertyOp49
 70
     1
102
RTVSPropertyOp50
 70
     1
102
RTVSPropertyOp51
 70
     0
102
RTVSPropertyOp52
 70
     0
102
RTVSPropertyOp53
 70
     1
102
RTVSPropertyOp54
 70
     1
102
RTVSPropertyOp55
 70
     1
102
RTVSPropertyOp56
 70
     1
102
RTVSPropertyOp57
 70
     1
102
RTVSPropertyOp58
 70
     1
102
RTVSPropertyOp59
 70
     1
102
RTVSPropertyOp60
 70
     1
102
RTVSPropertyOp61
 70
     1
102
RTVSPropertyOp62
 70
     1
  0
XRECORD
  5
10A77
102
{ACAD_REACTORS
330
10A76
102
}
330
10A76
100
AcDbXrecord
280
     1
102
RTVSPost2010Prop28
280
     0
102
RTVSPost2010PropOp28
 70
     1
102
RTVSPost2010Prop29
280
     1
102
RTVSPost2010PropOp29
 70
     1
102
RTVSPost2010Prop30
280
     1
102
RTVSPost2010PropOp30
 70
     1
102
RTVSPost2010Prop31
280
     0
102
RTVSPost2010PropOp31
 70
     1
102
RTVSPost2010Prop32
280
     0
102
RTVSPost2010PropOp32
 70
     1
102
RTVSPost2010Prop33
280
     0
102
RTVSPost2010PropOp33
 70
     1
102
RTVSPost2010Prop34
280
     0
102
RTVSPost2010PropOp34
 70
     1
102
RTVSPost2010Prop35
280
     0
102
RTVSPost2010PropOp35
 70
     1
102
RTVSPost2010Prop36
280
     0
102
RTVSPost2010PropOp36
 70
     1
102
RTVSPost2010Prop37
 90
       50
102
RTVSPost2010PropOp37
 70
     1
102
RTVSPost2010Prop38
140
0.0
102
RTVSPost2010PropOp38
 70
     1
102
RTVSPost2010Prop39
140
1.0
102
RTVSPost2010PropOp39
 70
     1
102
RTVSPost2010Prop40
 90
        0
102
RTVSPost2010PropOp40
 70
     1
102
RTVSPost2010Prop41ColorIndex
 90
       18
102
RTVSPost2010Prop41ColorRGB
 90
        0
102
RTVSPost2010PropOp41
 70
     1
102
RTVSPost2010Prop42
 90
       50
102
RTVSPost2010PropOp42
 70
     1
102
RTVSPost2010Prop43
 90
        3
102
RTVSPost2010PropOp43
 70
     1
102
RTVSPost2010Prop44ColorIndex
 90
        5
102
RTVSPost2010Prop44ColorRGB
 90
      255
102
RTVSPost2010PropOp44
 70
     1
102
RTVSPost2010Prop45
280
     0
102
RTVSPost2010PropOp45
 70
     1
102
RTVSPost2010Prop46
 90
       50
102
RTVSPost2010PropOp46
 70
     1
102
RTVSPost2010Prop47
 90
       50
102
RTVSPost2010PropOp47
 70
     1
102
RTVSPost2010Prop48
 90
       50
102
RTVSPost2010PropOp48
 70
     1
102
RTVSPost2010Prop49
280
     0
102
RTVSPost2010PropOp49
 70
     1
102
RTVSPost2010Prop50
 90
       50
102
RTVSPost2010PropOp50
 70
     1
102
RTVSPost2010Prop51ColorIndex
 90
      256
102
RTVSPost2010Prop51ColorRGB
 90
-16777216
102
RTVSPost2010PropOp51
 70
     0
102
RTVSPost2010Prop52
140
1.0
102
RTVSPost2010PropOp52
 70
     0
102
RTVSPost2010Prop53
 90
        2
102
RTVSPost2010PropOp53
 70
     1
102
RTVSPost2010Prop54
  1
strokes_ogs.tif
102
RTVSPost2010PropOp54
 70
     1
102
RTVSPost2010Prop55
280
     0
102
RTVSPost2010PropOp55
 70
     1
102
RTVSPost2010Prop56
140
1.0
102
RTVSPost2010PropOp56
 70
     1
102
RTVSPost2010Prop57
140
1.0
102
RTVSPost2010PropOp57
 70
     1
102
RTVSPropertyOp0
 70
     1
102
RTVSPropertyOp1
 70
     1
102
RTVSPropertyOp2
 70
     1
102
RTVSPropertyOp3
 70
     1
102
RTVSPropertyOp4
 70
     1
102
RTVSPropertyOp5
 70
     1
102
RTVSPropertyOp6
 70
     1
102
RTVSPropertyOp7
 70
     1
102
RTVSPropertyOp8
 70
     1
102
RTVSPropertyOp9
 70
     1
102
RTVSPropertyOp10
 70
     1
102
RTVSPropertyOp11
 70
     1
102
RTVSPropertyOp12
 70
     1
102
RTVSPropertyOp13
 70
     1
102
RTVSPropertyOp14
 70
     1
102
RTVSPropertyOp15
 70
     1
102
RTVSPropertyOp16
 70
     1
102
RTVSPropertyOp17
 70
     1
102
RTVSPropertyOp18
 70
     1
102
RTVSPropertyOp19
 70
     1
102
RTVSPropertyOp20
 70
     1
102
RTVSPropertyOp21
 70
     1
102
RTVSPropertyOp22
 70
     1
102
RTVSPropertyOp23
 70
     1
102
RTVSPropertyOp24
 70
     1
102
RTVSPropertyOp25
 70
     1
102
RTVSPropertyOp26
 70
     1
102
RTVSPropertyOp27
 70
     1
102
RTVSPropertyOp28
 70
     1
102
RTVSPropertyOp29
 70
     1
102
RTVSPropertyOp30
 70
     1
102
RTVSPropertyOp31
 70
     1
102
RTVSPropertyOp32
 70
     1
102
RTVSPropertyOp33
 70
     1
102
RTVSPropertyOp34
 70
     1
102
RTVSPropertyOp35
 70
     1
102
RTVSPropertyOp36
 70
     1
102
RTVSPropertyOp37
 70
     1
102
RTVSPropertyOp38
 70
     1
102
RTVSPropertyOp39
 70
     1
102
RTVSPropertyOp40
 70
     1
102
RTVSPropertyOp41
 70
     1
102
RTVSPropertyOp42
 70
     1
102
RTVSPropertyOp43
 70
     1
102
RTVSPropertyOp44
 70
     1
102
RTVSPropertyOp45
 70
     1
102
RTVSPropertyOp46
 70
     1
102
RTVSPropertyOp47
 70
     1
102
RTVSPropertyOp48
 70
     1
102
RTVSPropertyOp49
 70
     1
102
RTVSPropertyOp50
 70
     1
102
RTVSPropertyOp51
 70
     0
102
RTVSPropertyOp52
 70
     0
102
RTVSPropertyOp53
 70
     1
102
RTVSPropertyOp54
 70
     1
102
RTVSPropertyOp55
 70
     1
102
RTVSPropertyOp56
 70
     1
102
RTVSPropertyOp57
 70
     1
102
RTVSPropertyOp58
 70
     1
102
RTVSPropertyOp59
 70
     1
102
RTVSPropertyOp60
 70
     1
102
RTVSPropertyOp61
 70
     1
102
RTVSPropertyOp62
 70
     1
  0
ENDSEC
  0
EOF
